Song name
# A B C D E F G H I J K L M N O P Q R S T U V W X Y Z

Mims - This Is Why Im Hot tab

this is how i play it

e|------------------------------------------------------------------------|
B|------------------------------------------------------------------------|
G|-------------------13-13-13---------------14--14--14--14--14--14--14----|
D|------11--11--11--------------14--14--13--------------------------------|
A|------------------------------------------------------------------------|
E|------------------------------------------------------------------------|

This is my first tab dont be too harsh
This is M.I.M.S. This Is Why I'm Hot


Bass sounds good if you just play each note once
like this 

G|-----------13-----------14-------|
D|------11--------14--13-----------|
A|---------------------------------|
E|---------------------------------|

Tap to rate this tab
# A B C D E F G H I J K L M N O P Q R S T U V W X Y Z