Song name
# A B C D E F G H I J K L M N O P Q R S T U V W X Y Z

Mims - This Is Why I Rock tab

THIS IS WHY I'M HOT (ROCK MIX}
MIMS Ft Purple Popcorn

Seen on Zune Commercial


[0:00]
e|-----------------------------------------------------------------------|
B|-----------------------------------------------------------------------|
G|--------13-13-13--------14-14-14-14-14-14-14-14-14---------------------|
D|11-11-11--------14-14-13-----------------------------------------------|
A|-----------------------------------------------------------------------|
E|-----------------------------------------------------------------------|
(Key Board Converted to Guitar)

[0:06] Low Distortion
e|-----------------------------------------------------------------------|
B|-----------------------------------------------------------------------|
G|-----------4-4-4-4-4-2-2-2-2-5-5-5-5-5-5-5-5-5-5-5-5-------------------|X2
D|2-2-2-2-2-2------------------------------------------------------------|
A|-----------------------------------------------------------------------|
E|-----------------------------------------------------------------------|
Palm Muted until [0:17]


[0:18] Heavier Distortion
e|-----------------------------------------------------------------------|
B|-----------------------------------------------------------------------|
G|-----------4-4-4-4-4-2-2-2-2-5-5-5-5-5-5-0-0-0-0-----------------------|X2
D|2-2-2-2-2-2------------------------------------------------------------|
A|-----------------------------------------------------------------------|
E|-----------------------------------------------------------------------|


[0:30]
e|-----------------------------------------------------------------------|
B|-----------------------------------------------------------------------|
G|------4-4-4------------------------------------------------------------|X2
D|9-9-9-4-4-4-7-7-7-10-10-10-10-10---------------------------------------|
A|9-9-9-1-1-1-7-7-7-10-10-10-10-10---------------------------------------|
E|7-7-7-------5-5-5-8--8--8--8--8----------------------------------------|


[0:41]
e|-----------------------------------------------------------------------|
B|-----------------------------------------------------------------------|
G|--------13-13-13--------14-14-14-14-14-14-14-14-14---------------------|
D|11-11-11--------14-14-13-----------------------------------------------|
A|-----------------------------------------------------------------------|
E|-----------------------------------------------------------------------|
(Key Board Converted to Guitar)


[0:48]
e|-----------------------------------------------------------------------|
B|-----------------------------------------------------------------------|
G|-----------4-4-4-4-4-2-2-2-2-5-5-5-5-5-5-5-5-5-5-5-5-------------------|X3
D|2-2-2-2-2-2------------------------------------------------------------|
A|-----------------------------------------------------------------------|
E|-----------------------------------------------------------------------|
Palm Muted
At about [1:00] or the 3rd time you repeat the keyboard comes back in

[1:06]
e|-----------------------------------------------------------------------|
B|-----------------------------------------------------------------------|
G|-----------4-4-4-4-4-2-2-2-2-5-5-5-5-5-0-0-0-0-0-0-0-------------------|X2
D|2-2-2-2-2-2------------------------------------------------------------|
A|-----------------------------------------------------------------------|
E|-----------------------------------------------------------------------|


[1:18]
e|-----------------------------------------------------------------------|
B|-----------------------------------------------------------------------|
G|------4-4-4------------------------------------------------------------|X2
D|9-9-9-4-4-4-7-7-7-10-10-10-10-10---------------------------------------|
A|9-9-9-1-1-1-7-7-7-10-10-10-10-10---------------------------------------|
E|7-7-7-------5-5-5-8--8--8--8--8----------------------------------------|

[1:30]
e|-----------------------------------------------------------------------|
B|-----------------------------------------------------------------------|
G|-----------4-4-4-4-4-2-2-2-2-5-5-5-5-5-0-0-0-0-0-0-0-------------------|X2
D|2-2-2-2-2-2------------------------------------------------------------|
A|-----------------------------------------------------------------------|
E|-----------------------------------------------------------------------|


[1:42]
e|-----------------------------------------------------------------------|
B|-----------------------------------------------------------------------|
G|------4-4-4------------------------------------------------------------|X2
D|9-9-9-4-4-4-7-7-7-10-10-10-10-10---------------------------------------|
A|9-9-9-1-1-1-7-7-7-10-10-10-10-10---------------------------------------|
E|7-7-7-------5-5-5-8--8--8--8--8----------------------------------------|


[1:55] Keyboard
e|-----------------------------------------------------------------------|
B|-----------------------------------------------------------------------|
G|--------13-13-13--------14-14-14-14-14-14-14-14-14---------------------|
D|11-11-11--------14-14-13-----------------------------------------------|X2
A|-----------------------------------------------------------------------|
E|-----------------------------------------------------------------------|


[2:06]
e|-----------------------------------------------------------------------|
B|-----------------------------------------------------------------------|
G|-----------4-4-4-4-4-2-2-2-2-5-5-5-5-5-5-5-5-5-5-5-5-------------------|X3
D|2-2-2-2-2-2------------------------------------------------------------|
A|-----------------------------------------------------------------------|
E|-----------------------------------------------------------------------|
Palm Muted


At [2:12] Keyboard Resumes


[2:18] Keyboard Stops
Heavier Distortion Not Muted
e|-----------------------------------------------------------------------|
B|-----------------------------------------------------------------------|
G|-----------4-4-4-4-4-2-2-2-2-5-5-5-5-5-5-0-0-0-0-----------------------|X2
D|2-2-2-2-2-2------------------------------------------------------------|
A|-----------------------------------------------------------------------|
E|-----------------------------------------------------------------------|


[2:30]
e|-----------------------------------------------------------------------|
B|-----------------------------------------------------------------------|
G|------4-4-4------------------------------------------------------------|X2
D|9-9-9-4-4-4-7-7-7-10-10-10-10-10---------------------------------------|
A|9-9-9-1-1-1-7-7-7-10-10-10-10-10---------------------------------------|
E|7-7-7-------5-5-5-8--8--8--8--8----------------------------------------|


[2:41]
e|-----------------------------------------------------------------------|
B|-----------------------------------------------------------------------|
G|-----------4-4-4-4-4-2-2-2-2-5-5-5-5-5-5-0-0-0-0-----------------------|X2
D|2-2-2-2-2-2------------------------------------------------------------|
A|-----------------------------------------------------------------------|
E|-----------------------------------------------------------------------|


e|-----------------------------------------------------------------------|
B|-----------------------------------------------------------------------|
G|------4-4-4------------------------------------------------------------|X2
D|9-9-9-4-4-4-7-7-7-10-10-10-10-10---------------------------------------|
A|9-9-9-1-1-1-7-7-7-10-10-10-10-10---------------------------------------|
E|7-7-7-------5-5-5-8--8--8--8--8----------------------------------------|


[3:06] KeyBoard
e|-----------------------------------------------------------------------|
B|-----------------------------------------------------------------------|
G|--------13-13-13--------14-14-14-14-14-14-14-14-14---------------------|
D|11-11-11--------14-14-13-----------------------------------------------|
A|-----------------------------------------------------------------------|
E|-----------------------------------------------------------------------|

Palm Muted
e|-----------------------------------------------------------------------|
B|-----------------------------------------------------------------------|
G|-----------4-4-4-4-4-2-2-2-2-5-5-5-5-5-5-5-5-5-5-5-5-------------------|X2
D|2-2-2-2-2-2------------------------------------------------------------|
A|-----------------------------------------------------------------------|
E|-----------------------------------------------------------------------|


Not Muted Heavier Distortion [3:30]
e|-----------------------------------------------------------------------|
B|-----------------------------------------------------------------------|
G|-----------4-4-4-4-4-2-2-2-2-5-5-5-5-5-5-0-0-0-0-----------------------|X2
D|2-2-2-2-2-2------------------------------------------------------------|
A|-----------------------------------------------------------------------|
E|-----------------------------------------------------------------------|


[3:42]
e|-----------------------------------------------------------------------|
B|-----------------------------------------------------------------------|
G|------4-4-4------------------------------------------------------------|X2
D|9-9-9-4-4-4-7-7-7-10-10-10-10-10---------------------------------------|
A|9-9-9-1-1-1-7-7-7-10-10-10-10-10---------------------------------------|
E|7-7-7-------5-5-5-8--8--8--8--8----------------------------------------|


e|-----------------------------------------------------------------------|
B|-----------------------------------------------------------------------|
G|-----------4-4-4-4-4-2-2-2-2-5-5-5-5-5-5-0-0-0-0-----------------------|X2
D|2-2-2-2-2-2------------------------------------------------------------|
A|-----------------------------------------------------------------------|
E|-----------------------------------------------------------------------|


[4:06]
e|-----------------------------------------------------------------------|
B|-----------------------------------------------------------------------|
G|------4-4-4------------------------------------------------------------|X2
D|9-9-9-4-4-4-7-7-7-10-10-10-10-10---------------------------------------|
A|9-9-9-1-1-1-7-7-7-10-10-10-10-10---------------------------------------|
E|7-7-7-------5-5-5-8--8--8--8--8----------------------------------------|


[4:18] Keyboard
e|-----------------------------------------------------------------------|
B|-----------------------------------------------------------------------|
G|--------13-13-13--------14-14-14-14-14-14-14-14-14---------------------|
D|11-11-11--------14-14-13-----------------------------------------------|
A|-----------------------------------------------------------------------|
E|-----------------------------------------------------------------------|


Palm Muted
e|-----------------------------------------------------------------------|
B|-----------------------------------------------------------------------|
G|-----------4-4-4-4-4-2-2-2-2-5-5-5-5-5-5-5-5-5-5-5-5-------------------|
D|2-2-2-2-2-2------------------------------------------------------------|
A|-----------------------------------------------------------------------|
E|-----------------------------------------------------------------------|

Repeat til end


It sound much heavier if you replace the D[9-9-9]
                                         A[9-9-9]
                                         E[7-7-7]

with
               E[2-2-2]
               A[2-2-2]
               D[0-0-0]


But I personally think the whole power chord part can be changed many many different ways.

Tabbed by Will Hart (wilhrt@gmail.com)

E-mail me for comments
Tap to rate this tab
# A B C D E F G H I J K L M N O P Q R S T U V W X Y Z