Song name
# A B C D E F G H I J K L M N O P Q R S T U V W X Y Z

Minatori - Njeriu I Fundit Ne Planet tab

Help us improve GuitareTab! Take a short survey!
Njeriu i fundit n planet  Minatori
Danny boy


Intro:

bass  vetm vazhdoni ritmin
g----------------------------|
d----------------------------|
a----------------------------|
e----5-5-5-5-5-5-5-5-5-5-5-5-|


e-------------------------------------------------------------------------|
b--------8---------------8--------------------8---------------8-----------|
g---5/9-----9--------7/9---11-------------7/9---11-------5/9----9---------|
d-------------------------------------------------------------------------|
a-------------------------------------------------------------------------|
e-------------------------------------------------------------------------|

keshtu luhet edhe strofa pastaj refreni:

       G                  F      Am
e---8/5--3--------------3/1--------------5--8-7-5------|
b---8/5--3--------------3/1----------1--5--------------|
g------------------------------------------------------|
d------------------------------------------------------|
a------------------------------------------------------|
e------------------------------------------------------|

              Si egrsir, jeta ditt I han.
          G                F                  E
e-----8/5--3----------------------3/1--------------------(1/12)----12------|
b-5---8/5--3----------------------3/1------------------0-(1/12)----12------|
g--------------------------------------------------------------------------|
d--------------------------------------------------------------------------|
a--------------------------------------------------------------------------|
e--------------------------------------------------------------------------|

             sht mir q je, edhe kur nuk t kam


Kur ti shkon,
un mbetem vet,
njeriu i fundit n planet.

Nuk perndon,
Dielli vdes,
kur ti shkon,
i vetm mbes.

Si egrsir,
jeta ditt i han,
sht mir q je,
edhe kur nuk t kam...

asnj pik lot,
asnj pik shi,
kur ti shkon,
shkrettir.

kur ti shkon,
sht dit e mbram,
askush nuk mbetet,
as un nuk jam.

Si egrsir,
jeta ditt i han,
sht mir q je,
edhe kur nuk t kam...
Related for Njeriu I Fundit Ne Planet tab