Song name
# A B C D E F G H I J K L M N O P Q R S T U V W X Y Z

Mind Blank - Kisah Kita tab

Mind Blank - Kisah Kita

Intro:

    D                       A
E:-------------------------------------------------|
B:-------------------------------------------------|
G:--7--7--7--7--6--6--6--6--4--4--4--4--6--6--6--6-|
D:-------------------------------------------------|
A:--5--5--5--5--4--4--4--4--2--2--2--2--4--4--4--4-|
E:-------------------------------------------------|

    Bm                      G
E:-------------------------------------------------|
B:--7--7--7--8--5--5--5--5-------------------------|
G:--------------------------6--6--6--7--7--6--4--4-|
D:--4--4--4--5--2--2--2--2-------------------------|
A:--------------------------4--4--4--5--5--4--2--2-|
E:-------------------------------------------------|

    Bm                      A
E:--------------------------------------------------|
B:--7--7--7--8--5--5--5--5--10-10-10-10-10-10-10-10-|
G:--------------------------------------------------|
D:--4--4--4--5--2--2--2--2--7--7--7--7--7--7--7--7--|
A:--------------------------------------------------|
E:--------------------------------------------------|


Verse:
D                G        A
Masa terlalu pantas berlalu
       D                    G       A
Tapi perasaan cinta sayang terhadapmu
   Bm           A           G        A
Tiada.... Perubahan.... Woooo... Ohhhh...


D              G         A
Adakala ku senyum sendirian
       D             G      A
Mengingati kenangan waktu kita
    Bm           A            G             A
Berdua..... Bersama..... Wooooo..... Ohhhhhhh....



Chorus:
D           A
Ku rindu detik itu
   Bm            G
Waktu kita bersama dulu
        Bm          A           G            A
Kembalilah..... Bersama.... Diriku...... Diriku.....
        Bm          A           G            A
Kembalilah..... Bersama.... Diriku...... Diriku.....


Solo:
          D                A
E:-----------------------------------|
B:-----------------------------------|
G:--------7--7-7-9-5---9-7-6-6-6-7-6-|
D:--7-7-9----------------------------|
A:-----------------------------------|
E:-----------------------------------|

          Bm                        G
E:-----------------------------------------------------------|
B:---------------------------------------------------7-8-7---|
G:--------7----------7-------7-------------------7-9-------9-|
D:--7-7-9---9--7-7-9---9-7-9---9-7-7-5--5--5-7-9-------------|
A:-----------------------------------------------------------|
E:-----------------------------------------------------------|

   Bm                           A
E:-------------------------------------------------------------|
B:--------------------------7-8-10-10-10-8-7-8-7---7-----------|
G:-----------7----------7-9----------------------9---9-7-9-----|
D:-9--9--7-9---9--9-7-9------------------------------------7---|
A:-------------------------------------------------------------|
E:-------------------------------------------------------------|


Chorus (slow):
D           A
Ku rindu detik itu
   Bm            G
Waktu kita bersama dulu
        Bm          A           G            A
Kembalilah..... Bersama.... Diriku...... Diriku.....
        Bm          A           G            A
Kembalilah..... Bersama.... Diriku...... Diriku.....
A
Woooooooooooo.....


Chorus:
D           A
Ku rindu detik itu
   Bm            G
Waktu kita bersama dulu
        Bm          A           G            A
Kembalilah..... Bersama.... Diriku...... Diriku.....
        Bm          A           G            A
Kembalilah..... Bersama.... Diriku...... Diriku.....
        Bm          A           G            A
Kembalilah..... Bersama.... Diriku...... Diriku.....
        Bm          A           G            A
Kembalilah..... Bersama.... Diriku...... Diriku.....
Bm
Woo.....
Tap to rate this tab
# A B C D E F G H I J K L M N O P Q R S T U V W X Y Z