Guitaretab - guitar tabs
Song name
# A B C D E F G H I J K L M N O P Q R S T U V W X Y Z

Mind Chemistry - Batteries Not Included tab

Mind Chemistry.
Tabbed by teddymtd@hoymail.com.
 
#----------------------------------PLEASE NOTE--------------------------------#
#This file is the author's own work and represents their interpretation of the#
#song. You may only use this file for private study, scholarship, or research.#
#-----------------------------------------------------------------------------#

Artist: MiNd ChEmIsTrY
Song name:Batteries not included
Tabbed by Dries van der Westhuizen.
Drop D Tunning

 intro 

e---------------------------------------------------------
b---------------------------------------------------------
g---------------------------------------------------------
d-----0-0-0-00000---888888----10-10-10-10-10--00000-------
a-----0-0-0-00000---888888----10-10-10-10-10--00000-------
D-----0-0-0-00000---888888----10-10-10-10-10--00000-------

e------------------------------
b------------------------------
g------------------------------
d-----5-333-00-3-1-1--0000000--       
a-----5-333-00-3-1-1--0000000--
D-----5-333-00-3-1-1--0000000--

e---------------------------------------------------------
b---------------------------------------------------------
g---------------------------------------------------------
d-----0-0-0-00000---888888----10-10-10-10-10--00000-------
a-----0-0-0-00000---888888----10-10-10-10-10--00000-------
D-----0-0-0-00000---888888----10-10-10-10-10--00000-------


e------------------------------
b------------------------------
g------------------------------
d-----5-333-00-3-1-1--0000000--       
a-----5-333-00-3-1-1--0000000--
D-----5-333-00-3-1-1--0000000--

 verse 

e----------------------------
b----------------------------
g----------------------------
d-----1-1-33-1-1-0-X-X-X-X-X-     - 12 times
a-----1-1-33-1-1-0-X-X-X-X-X-
D-----1-1-33-1-1-0-X-X-X-X-X-

 chorus  # 1

e---------------------------------------------------------
b---------------------------------------------------------
g---------------------------------------------------------
d-----88888888--10-10-10-10-10-10-10-10---000000000000000-   - 2 times
a-----88888888--10-10-10-10-10-10-10-10---000000000000000-
D-----88888888--10-10-10-10-10-10-10-10---000000000000000-


 solo   #1 (with chorus)


e---------------------------------------------------------
b-----19-19-19-19-19-19-19--15-18 18 18 18 18-18 18-------
g---------------------------------------------------------
d---------------------------------------------------------
a---------------------------------------------------------
D---------------------------------------------------------

(solo continues)

e---------------------------------------------------------
b-----15-15-15-15-15-15-15-15-15-15-15-15-15-15-15-18-----
g---------------------------------------------------------
d---------------------------------------------------------  solo 2 times
a---------------------------------------------------------
D---------------------------------------------------------


e---------------------------------------------------------
b---------------------------------------------------------
g-----12/10-10 10/8-8/7-7-7-7-7-7-7-----------------------
d---------------------------------------------------------
a-----10/-8--8--8/6-6/5-5-5-5-5-5-5-----------------------
D---------------------------------------------------------


 verse 

Chorus #2

e---------------------------------------------------------
b---------------------------------------------------------
g---------------------------------------------------------
d-----88888888--10-10-10-10-10-10-10-10---000000000000000-  - 2times
a-----88888888--10-10-10-10-10-10-10-10---000000000000000-
D-----88888888--10-10-10-10-10-10-10-10---000000000000000-
 
[ Tab from: http://www.guitaretab.com/m/mind-chemistry/27027.html ]
e---------------------------------------------------------
b---------------------------------------------------------
g---------------------------------------------------------
d-----88888888--10-10-10-10-10-10-10-10---333333333333333-  
a-----88888888--10-10-10-10-10-10-10-10---333333333333333-
D-----88888888--10-10-10-10-10-10-10-10---333333333333333-


e---------------------------------------------------------
b---------------------------------------------------------
g---------------------------------------------------------
d-----88888888--10-10-10-10-10-10-10-10---000000000000000-  
a-----88888888--10-10-10-10-10-10-10-10---000000000000000-
D-----88888888--10-10-10-10-10-10-10-10---000000000000000-


 solo    #2


e---------------------------------------------------------
b-----19-19-19-19-19-19-19--15-18 18 18 18 18-18 18-------
g---------------------------------------------------------
d---------------------------------------------------------
a---------------------------------------------------------
D---------------------------------------------------------

(solo continues)

e---------------------------------------------------------
b-----15-15-15-15-15-15-15-15-15-15-15-15-15-15-15-18-----
g---------------------------------------------------------
d---------------------------------------------------------  solo 2 times
a---------------------------------------------------------
D---------------------------------------------------------

(solo continues)

e---------------------------------------------------------
b-----19-19-19-19-19-19-19-15-18-18-18-18-18-18-18--------
g---------------------------------------------------------
d---------------------------------------------------------
a---------------------------------------------------------
D---------------------------------------------------------

(solo continues)

e---------------------------------------------------------
b-----19-19-19-19-19-19-19-19-19-19-19-19-19-19-----------
g---------------------------------------------------------
d---------------------------------------------------------
a---------------------------------------------------------
D---------------------------------------------------------

e---------------------------------------------------------
b-----19-19-19-19-19-19-19--15-18 18 18 18 18-18 18-------
g---------------------------------------------------------
d---------------------------------------------------------
a---------------------------------------------------------
D---------------------------------------------------------

(solo continues)

e---------------------------------------------------------
b-----15-15-15-15-15-15-15-15-15-15-15-15-15-15-15-18-----
g---------------------------------------------------------
d---------------------------------------------------------  
a---------------------------------------------------------
D---------------------------------------------------------

 outro   

e---------------------------------------------------------
b---------------------------------------------------------
g--------------------------------8--------7---------------
d------------15---------14-------------------------------- 2 times 
a-----13 13------12-12------8-8-----5-5-------------------    
D---------------------------------------------------------

(Whith outro)

e---------------------------------------------------------
b---------------------------------------------------------
g---------------------------------------------------------
d------8888--7777-3333-00000000---------------------------
a------8888--7777-3333-00000000---------------------------
D------8888--7777-3333-00000000---------------------------


  enjoy  

Commments or Questions 
e-mail teddymtd@hotmail.com


 
:: Ultimate Guitar Archive :: 
http://www.ultimate-guitar.com