Song name
# A B C D E F G H I J K L M N O P Q R S T U V W X Y Z

Mindflow - Under An Alias tab

Intro:
E|-5-0-3-5-6-5-3-5-5-3-5-6-5-0-|
B|-----------------------------|
G|-----------------------------|
D|-----------------------------|
A|-----------------------------|
E|-----------------------------|

E|-5-3-5-6-5-3-5-5-3-5-6-|
B|-----------------------|
G|-----------------------|
D|-----------------------|
A|-----------------------|
E|-----------------------|

E|-5-3-5-6-5-3-5-5-3-5-6-5-0-|
B|---------------------------|
G|---------------------------|
D|---------------------------|
A|---------------------------|
E|---------------------------|

Solo:
E|-------------------------------------------------------|
B|---------------------------------5---------6---6-8-6-5-|
G|---------5---------7-----------------------------------|
D|-7-7-5-7---7-7-5-7---7-7-5-7-5-7---7-7-5-7---7---------|
A|-0-----------------------------------------------------|
E|-------------------------------------------------------|

E|-----------------------------------------------------|
B|-------------------------------5---------6---6-8-6-5-|
G|-------5---------7-----------------------------------|
D|-7-5-7---7-7-5-7---7-7-5-7-5-7---7-7-5-7---7---------|
A|-----------------------------------------------------|
E|-----------------------------------------------------|

E|----------------------------------------------------|
B|----------------------------------------------------|
G|----------------------------------------------------|
D|---7-5-7-8-7-5-7-7-5-7-8-7--------------------------|
A|-0--------------------------0-----------------------|
E|----------------------------------------------------|

E|-----------------------|
B|-----------------------|
G|-----------------------|
D|-7-5-7-8-7-5-7-7-5-7-8-|
A|-----------------------|
E|-----------------------|
Tap to rate this tab
 
# A B C D E F G H I J K L M N O P Q R S T U V W X Y Z