Song name
# A B C D E F G H I J K L M N O P Q R S T U V W X Y Z

Mindframe - More In Life tab

MINDFRAME - More In Life


Tuning: EADGBE
Capo:   2nd Fret




Intro:         E--------------------------I
               B--------------------------I
               G-----9----2----6----4-----I     2x   Muted
               D-----9----2----6----4-----I
               A-----7----0----4----2-----I
               E--------------------------I


Verse:         E--------------------------I
               B--------------------------I
               G-----9----2----6----4-----I     4x   Muted
               D-----9----2----6----4-----I
               A-----7----0----4----2-----I
               E--------------------------I


Pre-Chorus:    E--------------------------I
               B--------------------------I
               G-----9----2----6----4-----I     2x   
               D-----9----2----6----4-----I
               A-----7----0----4----2-----I
               E--------------------------I


Chorus:        E--------------------------I
               B--------------------------I
               G-----9----2----6----4-----I     4x   
               D-----9----2----6----4-----I
               A-----7----0----4----2-----I
               E--------------------------I


Song order:    Intro
               Verse
               Pre-Chorus
               Chorus
               Verse
               Pre-Chorus
               Chorus
               Bridge
               Chorus
Tap to rate this tab
 
# A B C D E F G H I J K L M N O P Q R S T U V W X Y Z