Guitaretab - guitar tabs
Song name
# A B C D E F G H I J K L M N O P Q R S T U V W X Y Z

Mindless Self Indulgence - Pay For It tab

Tuning:DADGBE

Piano *transcribed for guitar*
e|-----------------|
B|-----------------|
G|-----------------|
D|-----5-----------|
A|-3-------6---3---|
D|-----------------|

Guitar
e|----------------|
B|----------------|
G|55--------------|
D|55--------------|
A|33--------------|
D|----------------|
I know I'll feel this way forever
I know no one will beg to differ
Goodbye so long it's been a pleasure
They love me when I say that

I don't want you to...
e|--------|
B|--------|
G|--------|
D|6-------|
A|6-------|
D|6-------|
hate me (Oh no)

e|----------------|
B|----------------|
G|----5-------5-3-|
D|5---5---6---5-3-|
A|5---3---6---3-1-|
D|5-------6-------|
I want you to wanna hate me

e|----------------|
B|----------------|
G|----5-----------|
D|5---5---6-------|
A|5---3---6-------|
D|5-------6-------|
I don't want you to date me
[ Tab from: http://www.guitaretab.com/m/mindless-self-indulgence/110887.html ]
e|--------------------------------------------|
B|--------------------------------------------|
G|5-5-----8-8-----13-13-----10-10-13\12(13)\12|
D|5-5-----8-8-----13-13-----10-10-13\12(13)\12|
A|3-3-----6-6-----11-11------8--8-11\10(11)\10|
D|--------------------------------------------|
I'm gonna pay for it. All of this shit. I'm gonna pay for it like a god damn son of a bitch

e|---------------------------------------|
B|---------------------------------------|
G|5-5-----8-8-----13-13-----10-10-13\12--|
D|5-5-----8-8-----13-13-----10-10-13\12--|
A|3-3-----6-6-----11-11------8--8-11\10--|
D|---------------------------------------|
I'm gonna pay for it. All of this shit. I'm gonna pay for it like a god damn son of a....


e|--xx--xx--x---xx|
B|--xx--xx--x---xx|
G|5-xx5-xx5-x---xx|
D|5-xx5-xx5-x6-6xx|
A|3-xx3-xx3-x6-6xx|
D|--xx--xx--x6-6xx|
Bitch! (hey! hey! hey!)

Never gonna be...

e|--|
B|--|
G|--|
D|66|
A|66|
D|66|
Perfect

(Synth transcribed for guitar)
e|----------------|
B|----------------|
G|----------------|
D|54545456545-----|
A|----------------|
D|----------------|
I'll let my motif be my motivation




And that's it

Hope you like ^^

Related for Pay For It tab
Advertisement will be closed in 10 seconds