Song name
# A B C D E F G H I J K L M N O P Q R S T U V W X Y Z

Mindless Self Indulgence - Backmask tab

Help us improve GuitareTab! Take a short survey!
Tuning:DADGBE

e|---------------------------------|
B|---------------------------------|
G|8----9----8-----------9-8--------|
D|8----7-10-6--9-8------9-8--------|
A|6-------8----7-6------7-6--------|
D|---------------------------------|

e|-----------------|
B|-----------------|
G|5--58-8-13--13-10|
D|5--58-8-13--13-10|
A|3--36-6-11--11--8|
D|-----------------|
Hate all the people you love....

e|----------------|
B|----------------|
G|5x5x8-----------|
D|5x5x8---6x6x3---|
A|3x3x6---6x6x3---|
D|--------6x6x3---|
Destroooooy. Always destroy

e|-------------|
B|-------------|
G|5---6-5------|
D|5---6-5------|
A|3---4-3------|
D|-------------|
Destroy. Yourself


And that is the song in its completion [minus the arrangement; but if you know the song; 
can work it out innit xD]. after the second chorus there no guitar so... yeah; short 
it be; this is the whole thing =D
Related for Backmask tab