Song name
# A B C D E F G H I J K L M N O P Q R S T U V W X Y Z

Mindless Self Indulgence - Uncle tab

Tuning:DADGBE

All you lazy people can't stangard tune this one xD you can drop every string a tone but 
to hell with that. =p

e|--------------------------------|
B|--------------------------------|
G|-------------------4-4-41-14-4-4|
D|8--8----6--6----1-14-4-41-14-4-4|
A|8--8----6--6----1-12-2-21-12-2-2|
D|8--8----6--6----1-1-----1-1-----|
Uh huh ho. Uh huh ho. No teachers after school.....

e|---------------|
B|---------------|
G|--------88-66-5|
D|88-88-8-88-66-5|
A|88-88-8-66-44-3|
D|88-88-8--------|
oooh no-uh ho

e|-------------------|
B|-------------------|
G|8--8-77-7----------|
D|8--8-77-7-8--8-66-6|
A|6--6-55-5-8--8-66-6|
D|----------8--8-66-6|
Why don't you beg? Fatso. Run. Fatso.

e|--------------------------------|
B|--------------------------------|
G|-----------10-------------------|
D|11---11-11-10-------10---10-10-8|
A|11---11-11--8-------10---10-10-8|
D|11---11-11----------10---10-10-8|
Why don't you say it? Oh oh no

e|-|
B|-|
G|-|
D|8|
A|8|
D|8|
Why don't you say it you baby run home to mama

e|-----------------------------------|
B|-----------------------------------|
G|-----------------------8-5-10------|
D|8-------6-------4------8-5-10-11---|
A|8-------6-------4------6-3--8-11---|
D|8-------6-------4-------------11---|
Everyone is intitled to their own opinion. Everyone except me
Tap to rate this tab
# A B C D E F G H I J K L M N O P Q R S T U V W X Y Z