Song name
# A B C D E F G H I J K L M N O P Q R S T U V W X Y Z

Mindless Self Indulgence - 3s tab

Tuning:DADGBE

[00.00]
e|--------------------------------|
B|--------------------------------|
G|--------------------------------|
D|8-88-8-7-7-7777-3-33-3-0-0-0000-|
A|8-88-8-7-7-7777-3-33-3-0-0-0000-|
D|8-88-8-7-7-7777-3-33-3-0-0-0000-|

[00.20]
e|----------------|
B|----------------|
G|----------------|
D|0---------------|
A|0---------------|
D|0---------------|

[00.22]
e|--------------------------------|
B|--------------------------------|
G|3---------------7---------------|
D|3---------------7---------------|
A|1---------------5---------------|
D|--------------------------------|

[00.23]
e|----------------|
B|----------------|
G|----------------|
D|00000-111-22-33-|
A|00000-111-22-33-|
D|00000-111-22-33-|

[01.15]
e|---------------------------------|
B|---------------------------------|
G|7--------------------------------|
D|7----------------5---------------|
A|5----------------5---------------|
D|-----------------5---------------|

and that's all the guitar; if you know the song then you'll how the arrangement =] hope you like
Tap to rate this tab
# A B C D E F G H I J K L M N O P Q R S T U V W X Y Z