Guitaretab - guitar tabs
Song name
# A B C D E F G H I J K L M N O P Q R S T U V W X Y Z

Mindless Self Indulgence - Tom Sawyer tab

Tabbed By : blinkomaniac182 
Tuning    : EADGBe
				
... = PM = Palm Mute

INTRO (0:00):

e------X2 (let ring)
B------
G--4---
D--x---
A--2---
E------

VERSE (0:07) :

e-----------------------------------------
B-----------------------------------------
G-----------------------------------------
D-------9----------7---------2--------5---
A-------9----------7---------2--------5---
E-7-7-7-7--7--7-7--5--7-7-7--0--7-7-7-3---
   . . .    .  . .     . . . .   . . .      

e----------------
B----------------
G----------------
D--5--4--2--12---
A--5--4--2--12---
E--3--2--0--10---

e-------------------------------------------------------------------
B-------------------------------------------------------------------
G--------------------44------------------------------4-4------------
D-----------------------5-454-2--------------------------5---5-5-4--
A--22-44-24-55-77-57-------------5-4---2-2-4---5-5-7----------------
E-------------------------------------------------------------------
[ Tab from: http://www.guitaretab.com/m/mindless-self-indulgence/139209.html ]
e---------------------------------------------
B---------------------------------------------
G---11---11---11--9------11--9------11---4----
D---11---11---11--9--10--11--9--10--11---4----
A---9----9----9---7--10--9---7--10--9----2----
E--------------------8----------8-------------

e------X2 (let ring)
B------
G--4---
D--x---
A--2---
E------

e---------------    ----------
B---------------    ----------
G---------------    ----------
D---------------    ----------
A--7-4-6---4----    -----0-2--
E--------7---5--X13 -0-2------

(2:09)

e-----------------------------------------------------
B-----------------------------------------------------
G-----------------------------------------------------
D-----------------------------------------------------
A-----------------------------------------------------
E-0-7--9-9-9--0-7--9-9-9--0-7--9-9-9--0-7--9-9-9--0---

OUTRO (2:16)

e----------------   ----------
B----------------   ----------
G----------------   ----------
D----------------   ----------
A--7-4-6---4-----   -----0-2--
E--------7---5---X7 -0-2------

Any corrections please mail me @ : ash_upton87@hotmail.com
Related for Tom Sawyer tab