Song name
# A B C D E F G H I J K L M N O P Q R S T U V W X Y Z

Mindless Self Indulgence - Planet Of The Apes tab

Tuning:DADGBE

e|----------------------------------------|
B|----------------------------------------|
G|10----10109----10---12--------13---12---|
D|--------------------------1010----------|
A|----------------------------------------|
D|----------------------------------------|
i never noticed you were illegal

e|----------------|
B|----------------|
G|5533665555336677|
D|5533665555336677|
A|3311443333114466|
D|----------------|
no no no no no - this ain't no walk in the park

this ain't no planet of no...
e|--------------------------------------|
B|--------------------------------------|
G|10--9--7--8------10--9--7--8--10-10/12|
D|10--9--5--6------10--9--5--6---8--8/10|
A|-8--7-------------8--7----------------|
D|--------------------------------------|
...apes!          oh baby yea yea yea yea

e|------------------|
B|------------------|
G|10--10------------|
D|10--10---11---8---|
A|-8---8---11---8---|
D|---------11---8---|
yes! no. do do do do

e|----------------------|
B|----------------------|
G|1010108----101010-8-7-|
D|10-8-86----10-8-8-6-5-|
A|-8----------8---------|
D|----------------------|
hey son check out my buns i'm gonna make another record then i'm gonna double up
Tap to rate this tab
# A B C D E F G H I J K L M N O P Q R S T U V W X Y Z