Song name
# A B C D E F G H I J K L M N O P Q R S T U V W X Y Z

Mindless Self Indulgence - Issues tab

Help us improve GuitareTab! Take a short survey!
5.Issues:
-----------
in this song im not 100% sure about it becuase the guitar does the same thing, except 
a few parts,
troughout the whole song, but im pretty sure that it is correct and if im wrong plz let 
know and i'll fix it and give you the
credit.But dont get pissed if it is wrong im trying my best...

There is alot of resting(pauses) in between each pairs of notes so listen to the song 
then you'll understand it
     ss  ss  ss  ss      ss  ss  ss  ss      ss  s s   ss        ss  ss  ss  ss
e|||-------------------|-------------------|-------------------|-------------------|
B|||-------------------|-------------------|-------------------|-------------------|
G|||-------------------|-------------------|-------------------|-------------------|
D|||-55--55--55--55----|-55--55--55--55----|-44--1010--55------|-55--55--55--55----|
A|||-55--55--55--55----|-55--55--55--55----|-44--1010--55------|-55--55--55--55----|
E|||-33--33--33--33----|-33--33--33--33----|-22--8-8---33------|-33--33--33--33----|

                                       |---------------------------------------|
 ss  ss              ss  s s  ss       |                                     x2|
-------------------|-------------------|-------------------|-------------------|
-------------------|-------------------|-------------------|-------------------|
-------------------|-------------------|---------55554444--|-5555----55557777--|
-55--55------------|-44--1010--55------|-5555444455554444--|-5555555555557777--|
-55--55------------|-44--1010--55------|-5555444433332222--|-3333555533335555--|
-33--33------------|-22--8-8---33------|-33332222----------|-----3333----------|
                                        pm......................................
 ss  ss  ss  ss      ss  ss  ss  ss      ss  ss              ss  ss  ss  ss
-------------------|-------------------|-------------------|-------------------|
-------------------|-------------------|-------------------|-------------------|
-------------------|-------------------|-------------------|-------------------|
-55--55--55--55----|-55--55--55--55----|-55--55------------|-55--55--55--55----|
-55--55--55--55----|-55--55--55--55----|-55--55------------|-55--55--55--55----|
-33--33--33--33----|-33--33--33--33----|-33--33------------|-33--33--33--33----|

 ss  ss  ss  ss      ss  ss
-------------------|-------------------|
-------------------|-------------------|
-------------------|-------------------|
-55--55--55--55----|-55--55------------|
-55--55--55--55----|-55--55------------|
-33--33--33--33----|-33--33------------| END!
Related for Issues tab