Song name
# A B C D E F G H I J K L M N O P Q R S T U V W X Y Z

Mindless Self Indulgence - Shut Me Up tab

standard tuning
0:00
E---------------------------------------------------------|
B---------------------------------------------------------|
G---------------------------------------------------------|
D-3-3-3-3-3-4---6-6-6-6-6-5---6-6-6-6-6-5---3-3-3-3-3-4---|
A-3-3-3-3-3-4---6-6-6-6-6-5---6-6-6-6-6-5---3-3-3-3-3-4---|
E-1-1-1-1-1-2---4-4-4-4-4-3---4-4-4-4-4-3---1-1-1-1-1-2---|

E---------------------------------------------------|
B---------------------------------------------------|
G---------------------------------------------------|
D-3-3-3-3-3-4---6-6-6-6-6-5---6-6-6-6-6-5---2---2---|
A-3-3-3-3-3-4---6-6-6-6-6-5---6-6-6-6-6-5---2---2---|
E-1-1-1-1-1-2---4-4-4-4-4-3---4-4-4-4-4-3---0---0---|

0:10
singing starts

E---------------------------------------------------------|
B---------------------------------------------------------|
G---------------------------------------------------------|
D-3-3-3-3-3-4---6-6-6-6-6-5---6-6-6-6-6-5---3-3-3-3-3-4---|
A-3-3-3-3-3-4---6-6-6-6-6-5---6-6-6-6-6-5---3-3-3-3-3-4---|
E-1-1-1-1-1-2---4-4-4-4-4-3---4-4-4-4-4-3---1-1-1-1-1-2---|

E---------------------------------------------------------|
B---------------------------------------------------------|
G---------------------------------------------------------|
D-3-3-3-3-3-4---6-6-6-6-6-5---6-6-6-6-6-5---3-3-3-3-3-4---|
A-3-3-3-3-3-4---6-6-6-6-6-5---6-6-6-6-6-5---3-3-3-3-3-4---|
E-1-1-1-1-1-2---4-4-4-4-4-3---4-4-4-4-4-3---1-1-1-1-1-2---|

E---------------------------------------------------------|
B---------------------------------------------------------|
G---------------------------------------------------------|
D-3-3-3-3-3-4---6-6-6-6-6-5---6-6-6-6-6-5---3-3-3-3-3-4---|
A-3-3-3-3-3-4---6-6-6-6-6-5---6-6-6-6-6-5---3-3-3-3-3-4---|
E-1-1-1-1-1-2---4-4-4-4-4-3---4-4-4-4-4-3---1-1-1-1-1-2---|

E---------------------------------------------------|
B---------------------------------------------------|
G---------------------------------------------------|
D-3-3-3-3-3-4---6-6-6-6-6-5---6-6-6-6-6-5---2---2---|
A-3-3-3-3-3-4---6-6-6-6-6-5---6-6-6-6-6-5---2---2---|
E-1-1-1-1-1-2---4-4-4-4-4-3---4-4-4-4-4-3---0---0---|

chorus 0:32

E------------------------------------------------------------|
B------------------------------------------------------------|
G------------------------------------------------------------|
D-6-6-6-6-6-6-6-6-3-3-3-3-3-3-3-3-5-5-5-5-5-5-5-5----4---5---|
A-6-6-6-6-6-6-6-6-3-3-3-3-3-3-3-3-5-5-5-5-5-5-5-5----4---5---|
E-4-4-4-4-4-4-4-4-1-1-1-1-1-1-1-1-3-3-3-3-3-3-3-3----2---3---|

E------------------------------------------------------------|
B------------------------------------------------------------|
G------------------------------------------------------------|
D-6-6-6-6-6-6-6-6-3-3-3-3-3-3-3-3-5-5-5-5-5-5-5-5----4---5---|
A-6-6-6-6-6-6-6-6-3-3-3-3-3-3-3-3-5-5-5-5-5-5-5-5----4---5---|
E-4-4-4-4-4-4-4-4-1-1-1-1-1-1-1-1-3-3-3-3-3-3-3-3----2---3---|

E------------------------------------------------------------|
B------------------------------------------------------------|
G------------------------------------------------------------|
D-6-6-6-6-6-6-6-6-3-3-3-3-3-3-3-3-5-5-5-5-5-5-5-5----4---5---|
A-6-6-6-6-6-6-6-6-3-3-3-3-3-3-3-3-5-5-5-5-5-5-5-5----4---5---|
E-4-4-4-4-4-4-4-4-1-1-1-1-1-1-1-1-3-3-3-3-3-3-3-3----2---3---|

E------------------------------------------------------------|
B------------------------------------------------------------|
G------------------------------------------------------------|
D-6-6-6-6-6-6-6-6-3-3-3-3-3-3-3-3-5-5-5-5-5-5-5-5----4---5---|
A-6-6-6-6-6-6-6-6-3-3-3-3-3-3-3-3-5-5-5-5-5-5-5-5----4---5---|
E-4-4-4-4-4-4-4-4-1-1-1-1-1-1-1-1-3-3-3-3-3-3-3-3----2---3---|

0:54
E-------------------------------------------------------------|
B-------------------------------------------------------------|
G-------------------------------------------------------------|
D-6~--------------3~--------3-3-3-6~------------3~---------2--|
A-6~--------------3~--------3-3-3-6~------------3~---------2--|
E-4~--------------1~--------1-1-1-4~------------1~---------0--|

1:06 verse

E---------------------------------------------------------|
B---------------------------------------------------------|
G---------------------------------------------------------|
D-3-3-3-3-3-4---6-6-6-6-6-5---6-6-6-6-6-5---3-3-3-3-3-4---|
A-3-3-3-3-3-4---6-6-6-6-6-5---6-6-6-6-6-5---3-3-3-3-3-4---|
E-1-1-1-1-1-2---4-4-4-4-4-3---4-4-4-4-4-3---1-1-1-1-1-2---|

E---------------------------------------------------------|
B---------------------------------------------------------|
G---------------------------------------------------------|
D-3-3-3-3-3-4---6-6-6-6-6-5---6-6-6-6-6-5---3-3-3-3-3-4---|
A-3-3-3-3-3-4---6-6-6-6-6-5---6-6-6-6-6-5---3-3-3-3-3-4---|
E-1-1-1-1-1-2---4-4-4-4-4-3---4-4-4-4-4-3---1-1-1-1-1-2---|

E---------------------------------------------------------|
B---------------------------------------------------------|
G---------------------------------------------------------|
D-3-3-3-3-3-4---6-6-6-6-6-5---6-6-6-6-6-5---3-3-3-3-3-4---|
A-3-3-3-3-3-4---6-6-6-6-6-5---6-6-6-6-6-5---3-3-3-3-3-4---|
E-1-1-1-1-1-2---4-4-4-4-4-3---4-4-4-4-4-3---1-1-1-1-1-2---|

E---------------------------------------------------|
B---------------------------------------------------|
G---------------------------------------------------|
D-3-3-3-3-3-4---6-6-6-6-6-5---6-6-6-6-6-5---2---2---|
A-3-3-3-3-3-4---6-6-6-6-6-5---6-6-6-6-6-5---2---2---|
E-1-1-1-1-1-2---4-4-4-4-4-3---4-4-4-4-4-3---0---0---|

1:28 chorus

E------------------------------------------------------------|
B------------------------------------------------------------|
G------------------------------------------------------------|
D-6-6-6-6-6-6-6-6-3-3-3-3-3-3-3-3-5-5-5-5-5-5-5-5----4---5---|
A-6-6-6-6-6-6-6-6-3-3-3-3-3-3-3-3-5-5-5-5-5-5-5-5----4---5---|
E-4-4-4-4-4-4-4-4-1-1-1-1-1-1-1-1-3-3-3-3-3-3-3-3----2---3---|

E------------------------------------------------------------|
B------------------------------------------------------------|
G------------------------------------------------------------|
D-6-6-6-6-6-6-6-6-3-3-3-3-3-3-3-3-5-5-5-5-5-5-5-5----4---5---|
A-6-6-6-6-6-6-6-6-3-3-3-3-3-3-3-3-5-5-5-5-5-5-5-5----4---5---|
E-4-4-4-4-4-4-4-4-1-1-1-1-1-1-1-1-3-3-3-3-3-3-3-3----2---3---|

E------------------------------------------------------------|
B------------------------------------------------------------|
G------------------------------------------------------------|
D-6-6-6-6-6-6-6-6-3-3-3-3-3-3-3-3-5-5-5-5-5-5-5-5----4---5---|
A-6-6-6-6-6-6-6-6-3-3-3-3-3-3-3-3-5-5-5-5-5-5-5-5----4---5---|
E-4-4-4-4-4-4-4-4-1-1-1-1-1-1-1-1-3-3-3-3-3-3-3-3----2---3---|

E------------------------------------------------------------|
B------------------------------------------------------------|
G------------------------------------------------------------|
D-6-6-6-6-6-6-6-6-3-3-3-3-3-3-3-3-5-5-5-5-5-5-5-5----4---5---|
A-6-6-6-6-6-6-6-6-3-3-3-3-3-3-3-3-5-5-5-5-5-5-5-5----4---5---|
E-4-4-4-4-4-4-4-4-1-1-1-1-1-1-1-1-3-3-3-3-3-3-3-3----2---3---|

1:52 bridge
E-----------------------------------------------------------------|
B-----------------------------------------------------------------|
G-----------------------------------------------------------------|
D-9-9-9-9-9-9-9-9-7-7-7-7-7-7-7-7-4-4-4-4-4-4-4-4-7-7-7-7-9-9-8-8-|
A-9-9-9-9-9-9-9-9-7-7-7-7-7-7-7-7-4-4-4-4-4-4-4-4-7-7-7-7-9-9-8-8-|
E-7-7-7-7-7-7-7-7-5-5-5-5-5-5-5-5-2-2-2-2-2-2-2-2-5-5-5-5-7-7-6-6-|

E-----------------------------------------------------------------|
B-----------------------------------------------------------------|
G-----------------------------------------------------------------|
D-9-9-9-9-9-9-9-9-7-7-7-7-7-7-7-7-4-4-4-4-4-4-4-4-7-7-7-7-9-9-8-8-|
A-9-9-9-9-9-9-9-9-7-7-7-7-7-7-7-7-4-4-4-4-4-4-4-4-7-7-7-7-9-9-8-8-|
E-7-7-7-7-7-7-7-7-5-5-5-5-5-5-5-5-2-2-2-2-2-2-2-2-5-5-5-5-7-7-6-6-|

E-----------------------------------------------------------------|
B-----------------------------------------------------------------|
G-----------------------------------------------------------------|
D-9-9-9-9-9-9-9-9-7-7-7-7-7-7-7-7-4-4-4-4-4-4-4-4-7-7-7-7-9-9-8-8-|
A-9-9-9-9-9-9-9-9-7-7-7-7-7-7-7-7-4-4-4-4-4-4-4-4-7-7-7-7-9-9-8-8-|
E-7-7-7-7-7-7-7-7-5-5-5-5-5-5-5-5-2-2-2-2-2-2-2-2-5-5-5-5-7-7-6-6-|

E----------------------------------------------------------------------|
B----------------------------------------------------------------------|
G----------------------------------------------------------------------|
D-9-9-9-9-9-9-9-9-7-7-7-7-7-7-7-7-4-4-4-4-4-4-4-4-(whip)-(whip)-(whip)-|
A-9-9-9-9-9-9-9-9-7-7-7-7-7-7-7-7-4-4-4-4-4-4-4-4----------------------|
E-7-7-7-7-7-7-7-7-5-5-5-5-5-5-5-5-2-2-2-2-2-2-2-2----------------------|

E-----------------------------------------------------------------|
B-----------------------------------------------------------------|
G-----------------------------------------------------------------|
D-9-9-9-9-9-9-9-9-7-7-7-7-7-7-7-7-4-4-4-4-4-4-4-4-7-7-7-7-9-9-8-8-|
A-9-9-9-9-9-9-9-9-7-7-7-7-7-7-7-7-4-4-4-4-4-4-4-4-7-7-7-7-9-9-8-8-|
E-7-7-7-7-7-7-7-7-5-5-5-5-5-5-5-5-2-2-2-2-2-2-2-2-5-5-5-5-7-7-6-6-|

E----------------------------------------------------------------------|
B----------------------------------------------------------------------|
G----------------------------------------------------------------------|
D-9-9-9-9-9-9-9-9-7-7-7-7-7-7-7-7-4-4-4-4-4-4-4-4-(whip)-(whip)-(whip)-|
A-9-9-9-9-9-9-9-9-7-7-7-7-7-7-7-7-4-4-4-4-4-4-4-4----------------------|
E-7-7-7-7-7-7-7-7-5-5-5-5-5-5-5-5-2-2-2-2-2-2-2-2----------------------|

chorus 2:26

E------------------------------------------------------------|
B------------------------------------------------------------|
G------------------------------------------------------------|
D-6-6-6-6-6-6-6-6-3-3-3-3-3-3-3-3-5-5-5-5-5-5-5-5----4---5---|
A-6-6-6-6-6-6-6-6-3-3-3-3-3-3-3-3-5-5-5-5-5-5-5-5----4---5---|
E-4-4-4-4-4-4-4-4-1-1-1-1-1-1-1-1-3-3-3-3-3-3-3-3----2---3---|

E------------------------------------------------------------|
B------------------------------------------------------------|
G------------------------------------------------------------|
D-6-6-6-6-6-6-6-6-3-3-3-3-3-3-3-3-5-5-5-5-5-5-5-5----4---5---|
A-6-6-6-6-6-6-6-6-3-3-3-3-3-3-3-3-5-5-5-5-5-5-5-5----4---5---|
E-4-4-4-4-4-4-4-4-1-1-1-1-1-1-1-1-3-3-3-3-3-3-3-3----2---3---|

E------------------------------------------------------------|
B------------------------------------------------------------|
G------------------------------------------------------------|
D-6-6-6-6-6-6-6-6-3-3-3-3-3-3-3-3-5-5-5-5-5-5-5-5----4---5---|
A-6-6-6-6-6-6-6-6-3-3-3-3-3-3-3-3-5-5-5-5-5-5-5-5----4---5---|
E-4-4-4-4-4-4-4-4-1-1-1-1-1-1-1-1-3-3-3-3-3-3-3-3----2---3---|

E---------------------------------------------------------------|
B---------------------------------------------------------------|
G---------------------------------------------------------------|
D-6-6-6-6-6-6-6-6-3-3-3-3-3-3-3-3-5-5-5-5-5-5-5-5----4---5---7--|
A-6-6-6-6-6-6-6-6-3-3-3-3-3-3-3-3-5-5-5-5-5-5-5-5----4---5---7--|
E-4-4-4-4-4-4-4-4-1-1-1-1-1-1-1-1-3-3-3-3-3-3-3-3----2---3---5--|

(whip)

tabbed by Hayden Davies
e-mail  turkey139@hotmail.com

enjoy =)
Tap to rate this tab
 
# A B C D E F G H I J K L M N O P Q R S T U V W X Y Z