Song name
# A B C D E F G H I J K L M N O P Q R S T U V W X Y Z

Mindless Self Indulgence - I Hate Jimmy Page tab

----------------------------------------------------------------------------
             I HATE JIMMY PAGE - MINDLESS SELF INDULGENCE             
----------------------------------------------------------------------------
:Disclaimer/rant: before you start e-mailing me and asking me, "Why does MSI
hate Jimmy Page" or "Do you hate Jimmy Page." 1) I don't hate him, but I'm not
a fan of Led Zeppelin (Robert Plant gets on my nerves), and 2) MSI uses it as
a metaphor to stop remaking and reproducing the same sounding shit (Audioslave,
heres a big fuck you).:end Disclaimer/rant:
enjoy

Tabbed by: A Darker Breed
Email: ADarkerBreed@gmail.com

Tuning: Standard

Main Riff1 + 2 + Fill
                       (Steve, Righ? uses a wha here)
1 e|------|            2  e|-----------|
  B|------|               B|-----------|
  G|------|               G|-----------|
  D|------|               D|-----------|
  A|--4-4-|               A|-4-4-4-4/5-|
  E|--2-2-|               E|-2-2-2-2/3-|

e|-------------|
B|-------------|
G|-------------|
D|-------------|
A|-0--0--2-4-4-|
E|---------2-2-|

Chorus

e|--------------------|
B|--------------------|
G|--------------------|
D|---------444444-7-6-|
A|-444/555-222222-5-4-|
E|-222/333------------|

Bridge

e|--------------------------|
B|----2----2-----2-----2----|
G|--------------------------|
D|--------------------------|
A|------------2-----2-----0-|
E|-2----3-------------------|

Outro

e|-----------------------------|
B|-----------------------------|
G|-----------------------------|
D|-----------------------------|
A|-4-4-4-4-5-5-5-5-9-9-9-9-7-7-|
E|-2-2-2-2-3-3-3-3-7-7-7-7-5-5-|
Tap to rate this tab
# A B C D E F G H I J K L M N O P Q R S T U V W X Y Z