Song name
# A B C D E F G H I J K L M N O P Q R S T U V W X Y Z

Mindless Self Indulgence - Shut Me Up tab

Mindless Self Indulgence
Shut Me Up

This is the lazy man's way of playing this song.
Drop D tuning

e|-----------------------------------------|
B|-----------------------------------------|
G|-----------------------------------------|
D|-4-----6---7-----6---7-----6---3-----4---|
A|-4(X5)-6---7(X5)-6---7(X5)-6---3(X5)-4---|
D|-4-----6---7-----6---7-----6---3-----4---|

e|---------------------------------------|
B|---------------------------------------|
G|---------------------------------------|
D|-4-----6---7-----6---7-----6---3---4---|
A|-4(X5)-6---7(X5)-6---7(X5)-6---3---4---|
D|-4-----6---7-----6---7-----6---3---4---|

e|-----------------------------------------|
B|-----------------------------------------|
G|-----------------------------------------|
D|-4-----6---7-----6---7-----6---3-----4---| Repeat 3X
A|-4(X5)-6---7(X5)-6---7(X5)-6---3(X5)-4---|
D|-4-----6---7-----6---7-----6---3-----4---|

e|---------------------------------------|
B|---------------------------------------|
G|---------------------------------------|
D|-4-----6---7-----6---7-----6---3---4---|
A|-4(X5)-6---7(X5)-6---7(X5)-6---3---4---|
D|-4-----4---7-----6---7-----6---3---4---|

e|---------------------------|
B|---------------------------|
G|---------------------------|
D|-4-----7-----6-----3---3-3-|
A|-4(X8)-7(X8)-6(X8)-3---3-3-|
D|-4-----7-----6-----3---3-3-|

e|-----------------------------|
B|-----------------------------|
G|-----------------------------|
D|-4-----7-----6-----3-X-X-3---|
A|-4(X8)-7(X8)-6(X8)-3-X-X-3---|
D|-4-----7-----6-----3-X-X-3---|

e|---------------------------|
B|---------------------------|
G|---------------------------|
D|-4-----7-----6-----3---3-3-|
A|-4(X8)-7(X8)-6(X8)-3---3-3-|
D|-4-----7-----6-----3---3-3-|

e|-------------------------------|
B|-------------------------------|
G|-------------------------------|
D|-4-----7-----6-----3-X-X-3-X-X-|
A|-4(X8)-7(X8)-6(X8)-3-X-X-3-X-X-|
D|-4-----7-----6-----3-X-X-3-X-X-|

e|----------------------------------|
B|----------------------------------|
G|----------------------------------|
D|-10(Hold)---------9(Hold)-8-8-8---|
A|-10---------------9-------8-8-8---|
D|-10---------------9-------8-8-8---|

e|----------------------------------|
B|----------------------------------|
G|----------------------------------|
D|-10(Hold)---------9(Hold)-8-------|
A|-10---------------9-------8-------|
D|-10---------------9-------8-------|

e|-----------------------------------------|
B|-----------------------------------------|
G|-----------------------------------------|
D|-4-----6---7-----6---7-----6---3-----4---| Repeat 3X
A|-4(X5)-6---7(X5)-6---7(X5)-6---3(X5)-4---|
D|-4-----6---7-----6---7-----6---3-----4---|

e|---------------------------------------|
B|---------------------------------------|
G|---------------------------------------|
D|-4-----6---7-----6---7-----6---3---4---|
A|-4(X5)-6---7(X5)-6---7(X5)-6---3---4---|
D|-4-----6---7-----6---7-----6---3---4---|

e|---------------------------|
B|---------------------------|
G|---------------------------|
D|-4-----7-----6-----3---3-3-|
A|-4(X8)-7(X8)-6(X8)-3---3-3-|
D|-4-----7-----6-----3---3-3-|

e|-----------------------------|
B|-----------------------------|
G|-----------------------------|
D|-4-----7-----6-----3-X-X-3---|
A|-4(X8)-7(X8)-6(X8)-3-X-X-3---|
D|-4-----7-----6-----3-X-X-3---|

e|---------------------------|
B|---------------------------|
G|---------------------------|
D|-4-----7-----6-----3---3-3-|
A|-4(X8)-7(X8)-6(X8)-3---3-3-|
D|-4-----7-----6-----3---3-3-|

e|-------------------------------|
B|-------------------------------|
G|-------------------------------|
D|-4-----7-----6-----3-X-X-3-X-X-|
A|-4(X8)-7(X8)-6(X8)-3-X-X-3-X-X-|
D|-4-----7-----6-----3-X-X-3-X-X-|

e|------------------------------------------|
B|------------------------------------------|
G|------------------------------------------|
D|-9(X8)-7(X8)-11(X8)-15(X4)--16(X2)-15(X2)-| Repeat 3X
A|-9-----7-----11-----15------16-----15-----|
D|-9-----7-----11-----15------16-----15-----|

e|------------------------------|
B|------------------------------|
G|------------------------------|
D|-9(X8)-7(X8)-11(X8)-15---16---|
A|-9-----7-----11-----15---16---|
D|-9-----7-----11-----15---16---|

e|------------------------------------------|
B|------------------------------------------|
G|------------------------------------------|
D|-9(X8)-7(X8)-11(X8)-15(X4)--16(X2)-15(X2)-| 
A|-9-----7-----11-----15------16-----15-----|
D|-9-----7-----11-----15------16-----15-----|

e|------------------------------|
B|------------------------------|
G|------------------------------|
D|-9(X8)-7(X8)-11(X8)-15---16---|
A|-9-----7-----11-----15---16---|
D|-9-----7-----11-----15---16---|

e|---------------------------|
B|---------------------------|
G|---------------------------|
D|-4-----7-----6-----3---3-3-|
A|-4(X8)-7(X8)-6(X8)-3---3-3-|
D|-4-----7-----6-----3---3-3-|

e|-----------------------------|
B|-----------------------------|
G|-----------------------------|
D|-4-----7-----6-----3-X-X-3---|
A|-4(X8)-7(X8)-6(X8)-3-X-X-3---|
D|-4-----7-----6-----3-X-X-3---|

e|---------------------------------|
B|---------------------------------|
G|---------------------------------|
D|-4-------7-------6-------3---3-3-|
A|-4(Hold)-7(Hold)-6(Hold)-3---3-3-|
D|-4-------7-------6-------3---3-3-|

e|-------------------------------------|
B|-------------------------------------|
G|-------------------------------------|
D|-4-------7-------6-------3---3---4---|
A|-4(Hold)-7(Hold)-6(Hold)-3---3---4---|
D|-4-------7-------6-------3---3---4---|
Tap to rate this tab
# A B C D E F G H I J K L M N O P Q R S T U V W X Y Z