Song name
# A B C D E F G H I J K L M N O P Q R S T U V W X Y Z

Mindless Self Indulgence - Cocaine And Toupees tab

Mindless Self Indulgence - Cocaine And Toupees
Standard Tuning
Distortion out the ass

Intro:  all bass, don't worry
You know it, you know that...

Refrain:
'cos it's on, oh its on motherfucker
e|--------------------------------------------------------------------------
B|--------------------------------------------------------------------------
G|--------------------------------------------------------------------------
D|-5/7-5-5-5-5/7-5-5-5-5/7-5-5-5--------------------------------------------
A|-5/7-5-5-5-5/7-5-5-5-5/7-5-5-5--------------------------------------------
E|-3/5-3-3-3-3/5-3-3-3-3/5-3-3-3--------------------------------------------

Screaming:
Balls and the fresh and the babies in my crack...
e|--------------------------------------------------------------------------
B|--------------------------------------------------------------------------
G|--------------------------------------------------------------------------
D|-7--7--5--5--7--7--3--3---------------------------------------------------
A|-7--7--5--5--7--7--3--3---------------------------------------------------
E|-5--5--3--3--5--5--1--1---------------------------------------------------

Bridge:
Ooh, I got me right where I want...
e|-------------3---3--3-----------------------------------------------------
B|-4-4-4-0---4---4--4--4----------------------------------------------------
G|---------3----------------------------------------------------------------
D|--------------------------------------------------------------------------
A|--------------------------------------------------------------------------
E|--------------------------------------------------------------------------

That was fun!
Good luck on the lyrics
Josh (iamjosh@vt.edu)
Tap to rate this tab
# A B C D E F G H I J K L M N O P Q R S T U V W X Y Z