Song name
# A B C D E F G H I J K L M N O P Q R S T U V W X Y Z

Mindless Self Indulgence - Wack tab

Artists : mindless self indulgence
Song: Wack!
Tabbed by: W.I.C.K.E.D.420

tuning: Drop-D

"I wonder when its gonna stop being fun for me"(verse 1)
-----------------------------------------------|
-----------------------------------------------|
-----------------------------------------------|
----6------------6------------6----------------|
----4------------4------------4----------------|
-----------------------------------------------|

"Five Fucking seconds now" (bridge)
---------------------------------------------|
---------------------------------------------|
---------------------------------------------|
----6-----6------6-----6----6----------------|
----4-----4------4-----4----4----------------|
---------------------------------------------|

"This Aint Like..."(verse 2)
---------------------------------------------|
---------------------------------------------|
---6--6----7--7----4--4----------------------|
---6--6----7--7----4--4----------------------|
---4--4----5--5----2--2----------------------|
---------------------------------------------|

"My Shit is wack"(chorus)
---------------------------------------------|
---------------------------------------------|
---6--6----7--7----4--4----------------------|
---6--6----7--7----4--4----------------------|
---4--4----5--5----2--2----------------------|
---------------------------------------------|


well theres ya a new msi song of there new EP and upcoming release called
Despierta Los Ninos......and your welcome
Tap to rate this tab
 
# A B C D E F G H I J K L M N O P Q R S T U V W X Y Z