Song name
# A B C D E F G H I J K L M N O P Q R S T U V W X Y Z

Mindless Self Indulgence - Straight To Video tab

-----------------------------------------------------------------------------
STRAIGHT TO VIDEO guitar tab - by Mindless Self Indulgence
-----------------------------------------------------------------------------
Tabbed by: stewartjm
Email: DeadManKillin64@yahoo.com

Tuning:
Guitar I (Distortion) - E A D G B e
Guitar II (Square Lead) - E A D G B e
Guitar III (Sawtooth Synth) - E A D G B e
Guitar IV (Square Lead) - E A D G B e



INTRO

|GUITAR I
|--------------------------------|--------------------------------|
|--------------------------------|--------------------------------|
|--------------------------------|--------------------------------|
|--------------------------------|5-------------------------------|
|--------------------------------|5-------------------------------|
|--------------------------------|3-------------------------------|
|GUITAR II
|--------------------------------|--------------------------------|
|--------------------------------|--------------------------------|
|--------------------------------|0-------0-----0---0-0---0---0---|
|2-------2-----2---2-2---2---2---|--------------------------------|
|--------------------------------|--------------------------------|
|--------------------------------|--------------------------------|
|GUITAR III
|------------12--15--12--14--12--|------------10--12--10--12--10--|
|--------------------------------|15------------------------------|
|--------------------------------|--------------------------------|
|--------------------------------|--------------------------------|
|--------------------------------|--------------------------------|
|--------------------------------|--------------------------------|
|GUITAR IV
|--------------------------------|--------------------------------|
|--------------------------------|--------------------------------|
|--------------------------------|--------------------------------|
|--------------------------------|--------------------------------|
|--------------------------------|------------------------0-------|
|0-----------------------2-------|3-------------------------------|

|GUITAR I
|--------------------------------|--------------------------------|
|--------------------------------|--------------------------------|
|--------------------------------|--------------------------------|
|7-------------------------------|5-------------------------------|
|7-------------------------------|5-------------------------------|
|5-------------------------------|3-------------------------------|
|GUITAR II
|--------------------------------|--------------------------------|
|--------------------------------|--------------------------------|
|--------------------------------|--------------------------------|
|--------------------------------|--------------------------------|
|--------------------------------|--------------------------------|
|0-------0-----0---0-0---0---0---|3-------3-----3---3-3---3---3---|
|GUITAR III
|------------7---8---7---8---7---|------------5---3---5---3---2---|
|13------------------------------|10------------------------------|
|--------------------------------|--------------------------------|
|--------------------------------|--------------------------------|
|--------------------------------|--------------------------------|
|--------------------------------|--------------------------------|
|GUITAR IV
|--------------------------------|--------------------------------|
|--------------------------------|--------------------------------|
|--------------------------------|--------------------------------|
|--------------------------------|--------------------------------|
|3-----------------------2-------|0-------------------------------|
|--------------------------------|----------------------------3---|

|GUITAR I
|--------------------------------|--------------------------------|
|--------------------------------|--------------------------------|
|--------------------------------|--------------------------------|
|--------------------------------|5-------------------------------|
|--------------------------------|5-------------------------------|
|--------------------------------|3-------------------------------|
|GUITAR II
|--------------------------------|--------------------------------|
|--------------------------------|--------------------------------|
|--------------------------------|--------------------------------|
|--------------------------------|--------------------------------|
|--------------------------------|--------------------------------|
|0-------0-----0---0-0---0---0---|3-------3-----3---3-3---3---3---|
|GUITAR III
|------------12--15--12--14--12--|------------10--12--10--12--10--|
|--------------------------------|15------------------------------|
|--------------------------------|--------------------------------|
|--------------------------------|--------------------------------|
|--------------------------------|--------------------------------|
|--------------------------------|--------------------------------|
|GUITAR IV
|--------------------------------|--------------------------------|
|--------------------------------|--------------------------------|
|--------------------------------|--------------------------------|
|--------------------------------|--------------------------------|
|--------------------------------|------------------------0-------|
|0-----------------------2-------|3-------------------------------|

|GUITAR I
|--------------------------------|--------------------------------|
|--------------------------------|--------------------------------|
|--------------------------------|--------------------------------|
|7-------------------------------|5-------------------------------|
|7-------------------------------|5-------------------------------|
|5-------------------------------|3-------------------------------|
|GUITAR II
|--------------------------------|--------------------------------|
|--------------------------------|--------------------------------|
|--------------------------------|--------------------------------|
|--------------------------------|--------------------------------|
|--------------------------------|--------------------------------|
|0-------0-----0---0-0---0---0---|3-------3-----3-----------------|
|GUITAR III
|------------7---8---7---8---7---|------------5---3---5---3---2---|
|13------------------------------|10------------------------------|
|--------------------------------|--------------------------------|
|--------------------------------|--------------------------------|
|--------------------------------|--------------------------------|
|--------------------------------|--------------------------------|
|GUITAR IV
|--------------------------------|--------------------------------|
|--------------------------------|--------------------------------|
|--------------------------------|--------------------------------|
|--------------------------------|--------------------------------|
|3-----------------------2-------|0-------------------------------|
|--------------------------------|--------------------------------|


VERSE I

|GUITAR I
|----------------|----------------|----------------|----------------|
|----------------|----------------|----------------|----------------|
|----------------|----------------|----------------|----------------|
|2-2-2-----------|5-5-5-----------|7-7-7-----------|5-5-5-----------|
|2-2-2-----------|5-5-5-----------|7-7-7-----------|5-5-5-----------|
|0-0-0-----------|3-3-3-----------|5-5-5-----------|3-3-3-----------| x2


CHORUS

|GUITAR I
|----------------|----------------|----------------|----------------|
|----------------|----------------|----------------|----------------|
|----------------|----------------|4---------------|----------------|
|2---------------|7-----5---------|4---------------|4-----2---------|
|2---------------|7-----5---------|2---------------|4-----2---------|
|0---------------|5-----3---------|----------------|2-----0---------| x2
|GUITAR II
|----------------|----------------|----------------|----------------|
|----------------|----------------|----------------|----------------|
|----------------|----------------|----4-------4---|----------------|
|----2-------2---|----7-------5---|--4-------4-----|----4-------2---|
|--2-------2-----|--7-------5-----|2-------2-------|--4-------2-----|
|0-------0-------|5-------3-------|----------------|2-------0-------| x2


POST-CHORUS

|GUITAR I
|--------------------------------|--------------------------------|
|--------------------------------|--------------------------------|
|--------------------------------|--------------------------------|
|--------------------------------|5-------------------------------|
|--------------------------------|5-------------------------------|
|--------------------------------|3-------------------------------|
|GUITAR II
|--------------------------------|--------------------------------|
|--------------------------------|--------------------------------|
|--------------------------------|0-------0-----0---0-0---0---0---|
|2-------2-----2---2-2---2---2---|--------------------------------|
|--------------------------------|--------------------------------|
|--------------------------------|--------------------------------|
|GUITAR III
|------------12--15--12--14--12--|------------10--12--10--12--10--|
|--------------------------------|15------------------------------|
|--------------------------------|--------------------------------|
|--------------------------------|--------------------------------|
|--------------------------------|--------------------------------|
|--------------------------------|--------------------------------|
|GUITAR IV
|--------------------------------|--------------------------------|
|--------------------------------|--------------------------------|
|--------------------------------|--------------------------------|
|--------------------------------|--------------------------------|
|--------------------------------|------------------------0-------|
|0-----------------------2-------|3-------------------------------|

|GUITAR I
|--------------------------------|--------------------------------|
|--------------------------------|--------------------------------|
|--------------------------------|--------------------------------|
|7-------------------------------|5-------------------------------|
|7-------------------------------|5-------------------------------|
|5-------------------------------|3-------------------------------|
|GUITAR II
|--------------------------------|--------------------------------|
|--------------------------------|--------------------------------|
|--------------------------------|--------------------------------|
|--------------------------------|--------------------------------|
|--------------------------------|--------------------------------|
|0-------0-----0---0-0---0---0---|3-------3-----3---3-3---3---3---|
|GUITAR III
|------------7---8---7---8---7---|------------5---3---5---3---2---|
|13------------------------------|10------------------------------|
|--------------------------------|--------------------------------|
|--------------------------------|--------------------------------|
|--------------------------------|--------------------------------|
|--------------------------------|--------------------------------|
|GUITAR IV
|--------------------------------|--------------------------------|
|--------------------------------|--------------------------------|
|--------------------------------|--------------------------------|
|--------------------------------|--------------------------------|
|3-----------------------2-------|0-------------------------------|
|--------------------------------|----------------------------3---|

|GUITAR I
|--------------------------------|--------------------------------|
|--------------------------------|--------------------------------|
|--------------------------------|--------------------------------|
|--------------------------------|5-------------------------------|
|--------------------------------|5-------------------------------|
|--------------------------------|3-------------------------------|
|GUITAR II
|--------------------------------|--------------------------------|
|--------------------------------|--------------------------------|
|--------------------------------|--------------------------------|
|--------------------------------|--------------------------------|
|--------------------------------|--------------------------------|
|0-------0-----0---0-0---0---0---|3-------3-----3---3-3---3---3---|
|GUITAR III
|------------12--15--12--14--12--|------------10--12--10--12--10--|
|--------------------------------|15------------------------------|
|--------------------------------|--------------------------------|
|--------------------------------|--------------------------------|
|--------------------------------|--------------------------------|
|--------------------------------|--------------------------------|
|GUITAR IV
|--------------------------------|--------------------------------|
|--------------------------------|--------------------------------|
|--------------------------------|--------------------------------|
|--------------------------------|--------------------------------|
|--------------------------------|------------------------0-------|
|0-----------------------2-------|3-------------------------------|

|GUITAR I
|--------------------------------|--------------------------------|
|--------------------------------|--------------------------------|
|--------------------------------|--------------------------------|
|7-------------------------------|5-------------------------------|
|7-------------------------------|5-------------------------------|
|5-------------------------------|3-------------------------------|
|GUITAR II
|--------------------------------|--------------------------------|
|--------------------------------|--------------------------------|
|--------------------------------|--------------------------------|
|--------------------------------|--------------------------------|
|--------------------------------|--------------------------------|
|0-------0-----0---0-0---0---0---|3-------3-----3-----------------|
|GUITAR III
|------------7---8---7---8---7---|------------5---3---5---3---2---|
|13------------------------------|10------------------------------|
|--------------------------------|--------------------------------|
|--------------------------------|--------------------------------|
|--------------------------------|--------------------------------|
|--------------------------------|--------------------------------|
|GUITAR IV
|--------------------------------|--------------------------------|
|--------------------------------|--------------------------------|
|--------------------------------|--------------------------------|
|--------------------------------|--------------------------------|
|3-----------------------2-------|0-------------------------------|
|--------------------------------|--------------------------------|


VERSE II

|GUITAR I
|----------------|----------------|----------------|----------------|
|----------------|----------------|----------------|----------------|
|----------------|----------------|----------------|----------------|
|2-2-2-----------|5-5-5-----------|7-7-7-----------|5-5-5-----------|
|2-2-2-----------|5-5-5-----------|7-7-7-----------|5-5-5-----------|
|0-0-0-----------|3-3-3-----------|5-5-5-----------|3-3-3-----------| x2


CHORUS

|GUITAR I
|----------------|----------------|----------------|----------------|
|----------------|----------------|----------------|----------------|
|----------------|----------------|4---------------|----------------|
|2---------------|7-----5---------|4---------------|4-----2---------|
|2---------------|7-----5---------|2---------------|4-----2---------|
|0---------------|5-----3---------|----------------|2-----0---------| x2
|GUITAR II
|----------------|----------------|----------------|----------------|
|----------------|----------------|----------------|----------------|
|----------------|----------------|----4-------4---|----------------|
|----2-------2---|----7-------5---|--4-------4-----|----4-------2---|
|--2-------2-----|--7-------5-----|2-------2-------|--4-------2-----|
|0-------0-------|5-------3-------|----------------|2-------0-------| x2


POST-CHORUS

|GUITAR I
|--------------------------------|--------------------------------|
|--------------------------------|--------------------------------|
|--------------------------------|--------------------------------|
|--------------------------------|5-------------------------------|
|--------------------------------|5-------------------------------|
|--------------------------------|3-------------------------------|
|GUITAR II
|--------------------------------|--------------------------------|
|--------------------------------|--------------------------------|
|--------------------------------|--------------------------------|
|--------------------------------|--------------------------------|
|--------------------------------|--------------------------------|
|0-------0-----0---0-0---0---0---|3-------3-----3---3-3---3---3---|
|GUITAR III
|------------12--15--12--14--12--|------------10--12--10--12--10--|
|--------------------------------|15------------------------------|
|--------------------------------|--------------------------------|
|--------------------------------|--------------------------------|
|--------------------------------|--------------------------------|
|--------------------------------|--------------------------------|
|GUITAR IV
|--------------------------------|--------------------------------|
|--------------------------------|--------------------------------|
|--------------------------------|--------------------------------|
|--------------------------------|--------------------------------|
|--------------------------------|------------------------0-------|
|0-----------------------2-------|3-------------------------------|

|GUITAR I
|--------------------------------|--------------------------------|
|--------------------------------|--------------------------------|
|--------------------------------|--------------------------------|
|7-------------------------------|5-------------------------------|
|7-------------------------------|5-------------------------------|
|5-------------------------------|3-------------------------------|
|GUITAR II
|--------------------------------|--------------------------------|
|--------------------------------|--------------------------------|
|--------------------------------|--------------------------------|
|--------------------------------|--------------------------------|
|--------------------------------|--------------------------------|
|0-------0-----0---0-0---0---0---|3-------3-----3-----------------|
|GUITAR III
|------------7---8---7---8---7---|------------5---3---5---3---2---|
|13------------------------------|10------------------------------|
|--------------------------------|--------------------------------|
|--------------------------------|--------------------------------|
|--------------------------------|--------------------------------|
|--------------------------------|--------------------------------|
|GUITAR IV
|--------------------------------|--------------------------------|
|--------------------------------|--------------------------------|
|--------------------------------|--------------------------------|
|--------------------------------|--------------------------------|
|3-----------------------2-------|0-------------------------------|
|--------------------------------|--------------------------------|


BRIDGE

|GUITAR I
|--------------------------------|--------------------------------|
|--------------------------------|--------------------------------|
|--------------------------------|--------------------------------|
|2-----------------------4-------|5-----------------------7-------|
|2-----------------------4-------|5-----------------------7-------|
|0-----------------------2-------|3-----------------------5-------|
|GUITAR II
|--------------------------------|--------------------------------|
|--------------------------------|--------------------------------|
|--------------------------------|0-------0-----0---0-0---0---0---|
|2-------2-----2---2-2---2---2---|--------------------------------|
|--------------------------------|--------------------------------|
|--------------------------------|--------------------------------|
|GUITAR III
|------------12--15--12--14--12--|------------10--12--10--12--10--|
|--------------------------------|15------------------------------|
|--------------------------------|--------------------------------|
|--------------------------------|--------------------------------|
|--------------------------------|--------------------------------|
|--------------------------------|--------------------------------|

|GUITAR I
|--------------------------------|--------------------------------|
|--------------------------------|--------------------------------|
|--------------------------------|--------------------------------|
|10----------------------9-------|5-------------------------------|
|10----------------------9-------|5-------------------------------|
|8-----------------------7-------|3-------------------------------|
|GUITAR II
|--------------------------------|--------------------------------|
|--------------------------------|--------------------------------|
|--------------------------------|--------------------------------|
|--------------------------------|--------------------------------|
|--------------------------------|--------------------------------|
|0-------0-----0---0-0---0---0---|3-------3-----3-----------------|
|GUITAR III
|------------7---8---7---8---7---|------------5---3---5---3---2---|
|13------------------------------|10------------------------------|
|--------------------------------|--------------------------------|
|--------------------------------|--------------------------------|
|--------------------------------|--------------------------------|
|--------------------------------|--------------------------------|

|GUITAR I
|--------------------------------|--------------------------------|
|--------------------------------|--------------------------------|
|--------------------------------|--------------------------------|
|2-----------------------4-------|5-----------------------7-------|
|2-----------------------4-------|5-----------------------7-------|
|0-----------------------2-------|3-----------------------5-------|
|GUITAR II
|--------------------------------|--------------------------------|
|--------------------------------|--------------------------------|
|--------------------------------|0-------0-----0---0-0---0---0---|
|2-------2-----2---2-2---2---2---|--------------------------------|
|--------------------------------|--------------------------------|
|--------------------------------|--------------------------------|
|GUITAR III
|------------12--15--12--14--12--|------------10--12--10--12--10--|
|--------------------------------|15------------------------------|
|--------------------------------|--------------------------------|
|--------------------------------|--------------------------------|
|--------------------------------|--------------------------------|
|--------------------------------|--------------------------------|

|GUITAR I
|--------------------------------|--------------------------------|
|--------------------------------|--------------------------------|
|--------------------------------|--------------------------------|
|10----------------------9-------|5-------------------------------|
|10----------------------9-------|5-------------------------------|
|8-----------------------7-------|3-------------------------------|
|GUITAR II
|--------------------------------|--------------------------------|
|--------------------------------|--------------------------------|
|--------------------------------|--------------------------------|
|--------------------------------|--------------------------------|
|--------------------------------|--------------------------------|
|0-------0-----0---0-0---0---0---|3-------3-----3-----------------|
|GUITAR III
|------------7---8---7---8---7---|------------5---3---5---3---2---|
|13------------------------------|10------------------------------|
|--------------------------------|--------------------------------|
|--------------------------------|--------------------------------|
|--------------------------------|--------------------------------|
|--------------------------------|--------------------------------|


BREAKDOWN

|GUITAR I
|----------------|----------------|----------------|----------------|
|----------------|----------------|----------------|----------------|
|----------------|----------------|----------------|----------------|
|----------------|----------------|----------------|----------------|
|----------------|----------------|----------------|----------------|
|0-0-6-7-0-6-7-6-|5-6-5-6-3-5-3-5-|0-0-6-7-0-6-7-6-|5-6-5-6-3-5-3-5-|
|GUITAR II
|----------------|----------------|--12------------|----------------|
|----------------|----------------|----------------|----------------|
|----------------|----------------|----------------|----------------|
|----------------|----------------|----------------|----------------|
|----------------|----------------|----------------|----------------|
|----------------|----------------|----------------|----------------|

|GUITAR I
|----------------|----------------|----------------|----------------|
|----------------|----------------|----------------|----------------|
|----------------|----------------|----------------|----------------|
|----------------|----------------|----------------|7-------5-------|
|----------------|----------------|----------------|7-------5-------|
|0-0-6-7-0-0-6-7-|6-5-6-5-3-5-3-5-|0-0-6-7-0-0-6-7-|5-------3-------|

|GUITAR I
|----------------|----------------|----------------|----------------|
|----------------|----------------|----------------|----------------|
|----------------|----------------|----------------|----------------|
|----------------|----------------|----------------|----------------|
|----------------|----------------|----------------|----------------|
|0-0-6-7-0-6-7-6-|5-6-5-6-3-5-3-5-|0-0-6-7-0-6-7-6-|5-6-5-6-3-5-3-5-|
|GUITAR III
|76xx0-70--------|76xx0-70--------|76xxxx076765-xx0|76765xx67-------|
|----------------|----------------|----------------|----------------|
|----------------|----------------|----------------|----------------|
|----------------|----------------|----------------|----------------|
|----------------|----------------|----------------|----------------|
|----------------|----------------|----------------|----------------|

|GUITAR I
|----------------|----------------|----------------|----------------|
|----------------|----------------|----------------|----------------|
|----------------|----------------|----------------|----------------|
|----------------|----------------|----------------|7-------5-------|
|----------------|----------------|----------------|7-------5-------|
|0-0-6-7-0-0-6-7-|6-5-6-5-3-5-3-5-|0-0-6-7-0-0-6-7-|5-------3-------|
|GUITAR III
|76xx0-70--------|76xx0-70--------|76xxxx076765-xx0|656x76xx076x7656|
|----------------|----------------|----------------|----------------|
|----------------|----------------|----------------|----------------|
|----------------|----------------|----------------|----------------|
|----------------|----------------|----------------|----------------|
|----------------|----------------|----------------|----------------|


VERSE III

|GUITAR I
|----------------|----------------|----------------|----------------|
|----------------|----------------|----------------|----------------|
|----------------|----------------|----------------|----------------|
|2-2-2-----------|5-5-5-----------|7-7-7-----------|5-5-5-----------|
|2-2-2-----------|5-5-5-----------|7-7-7-----------|5-5-5-----------|
|0-0-0-----------|3-3-3-----------|5-5-5-----------|3-3-3-----------|
|GUITAR II
|----12----------|----15----------|----17----------|----------------|
|----------------|----------------|----------------|----------------|
|----------------|----------------|----------------|----------------|
|----------------|----------------|----------------|----------------|
|----------------|----------------|----------------|----------------|
|----------------|----------------|----------------|----------------|


CHORUS

|GUITAR I
|----------------|----------------|----------------|----------------|
|----------------|----------------|----------------|----------------|
|----------------|----------------|4---------------|----------------|
|2---------------|7-----5---------|4---------------|4-----2---------|
|2---------------|7-----5---------|2---------------|4-----2---------|
|0---------------|5-----3---------|----------------|2-----0---------| x2
|GUITAR II
|----------------|----------------|----------------|----------------|
|----------------|----------------|----------------|----------------|
|----------------|----------------|----4-------4---|----------------|
|----2-------2---|----7-------5---|--4-------4-----|----4-------2---|
|--2-------2-----|--7-------5-----|2-------2-------|--4-------2-----|
|0-------0-------|5-------3-------|----------------|2-------0-------| x2


POST-CHORUS

|GUITAR I
|--------------------------------|--------------------------------|
|--------------------------------|--------------------------------|
|--------------------------------|--------------------------------|
|--------------------------------|5-------------------------------|
|--------------------------------|5-------------------------------|
|--------------------------------|3-------------------------------|
|GUITAR II
|--------------------------------|--------------------------------|
|--------------------------------|--------------------------------|
|--------------------------------|0-------0-----0---0-0---0---0---|
|2-------2-----2---2-2---2---2---|--------------------------------|
|--------------------------------|--------------------------------|
|--------------------------------|--------------------------------|
|GUITAR III
|------------12--15--12--14--12--|------------10--12--10--12--10--|
|--------------------------------|15------------------------------|
|--------------------------------|--------------------------------|
|--------------------------------|--------------------------------|
|--------------------------------|--------------------------------|
|--------------------------------|--------------------------------|
|GUITAR IV
|--------------------------------|--------------------------------|
|--------------------------------|--------------------------------|
|--------------------------------|--------------------------------|
|--------------------------------|--------------------------------|
|--------------------------------|------------------------0-------|
|0-----------------------2-------|3-------------------------------|

|GUITAR I
|--------------------------------|--------------------------------|
|--------------------------------|--------------------------------|
|--------------------------------|--------------------------------|
|7-------------------------------|5-------------------------------|
|7-------------------------------|5-------------------------------|
|5-------------------------------|3-------------------------------|
|GUITAR II
|--------------------------------|--------------------------------|
|--------------------------------|--------------------------------|
|--------------------------------|--------------------------------|
|--------------------------------|--------------------------------|
|--------------------------------|--------------------------------|
|0-------0-----0---0-0---0---0---|3-------3-----3---3-3---3---3---|
|GUITAR III
|------------7---8---7---8---7---|------------5---3---5---3---2---|
|13------------------------------|10------------------------------|
|--------------------------------|--------------------------------|
|--------------------------------|--------------------------------|
|--------------------------------|--------------------------------|
|--------------------------------|--------------------------------|
|GUITAR IV
|--------------------------------|--------------------------------|
|--------------------------------|--------------------------------|
|--------------------------------|--------------------------------|
|--------------------------------|--------------------------------|
|3-----------------------2-------|0-------------------------------|
|--------------------------------|----------------------------3---|

|GUITAR I
|--------------------------------|--------------------------------|
|--------------------------------|--------------------------------|
|--------------------------------|--------------------------------|
|--------------------------------|5-------------------------------|
|--------------------------------|5-------------------------------|
|--------------------------------|3-------------------------------|
|GUITAR II
|--------------------------------|--------------------------------|
|--------------------------------|--------------------------------|
|--------------------------------|--------------------------------|
|--------------------------------|--------------------------------|
|--------------------------------|--------------------------------|
|0-------0-----0---0-0---0---0---|3-------3-----3---3-3---3---3---|
|GUITAR III
|------------12--15--12--14--12--|------------10--12--10--12--10--|
|--------------------------------|15------------------------------|
|--------------------------------|--------------------------------|
|--------------------------------|--------------------------------|
|--------------------------------|--------------------------------|
|--------------------------------|--------------------------------|
|GUITAR IV
|--------------------------------|--------------------------------|
|--------------------------------|--------------------------------|
|--------------------------------|--------------------------------|
|--------------------------------|--------------------------------|
|--------------------------------|------------------------0-------|
|0-----------------------2-------|3-------------------------------|

|GUITAR I
|--------------------------------|--------------------------------|
|--------------------------------|--------------------------------|
|--------------------------------|--------------------------------|
|7-------------------------------|5-------------------------------|
|7-------------------------------|5-------------------------------|
|5-------------------------------|3-------------------------------|
|GUITAR II
|--------------------------------|--------------------------------|
|--------------------------------|--------------------------------|
|--------------------------------|--------------------------------|
|--------------------------------|--------------------------------|
|--------------------------------|--------------------------------|
|0-------0-----0---0-0---0---0---|3-------3-----3-----------------|
|GUITAR III
|------------7---8---7---8---7---|------------5---3---5---3---2---|
|13------------------------------|10------------------------------|
|--------------------------------|--------------------------------|
|--------------------------------|--------------------------------|
|--------------------------------|--------------------------------|
|--------------------------------|--------------------------------|
|GUITAR IV
|--------------------------------|--------------------------------|
|--------------------------------|--------------------------------|
|--------------------------------|--------------------------------|
|--------------------------------|--------------------------------|
|3-----------------------2-------|0-------------------------------|
|--------------------------------|--------------------------------|

|GUITAR III
|0---------------|
|----------------|
|----------------|
|----------------|
|----------------|
|----------------|


OUTRO

|GUITAR I
|----------------|----------------|----------------|----------------|
|----------------|----------------|----------------|----------------|
|----------------|----------------|----------------|----------------|
|2-------------5-|5---------------|7-------------5-|5-------4-------|
|2-------------5-|5---------------|7-------------5-|5-------4-------|
|0-------------3-|3---------------|5-------------3-|3-------2-------| x2
Tap to rate this tab
 
# A B C D E F G H I J K L M N O P Q R S T U V W X Y Z