Guitaretab - guitar tabs
Song name
# A B C D E F G H I J K L M N O P Q R S T U V W X Y Z

Mindless Self Indulgence - Shut Me Up tab

Band: Mindless Self Indulgence
Album: You'll Rebel to Anything
Song: Shut Me Up
Tabbed by: Tias

Hey, here is some general information: The song is in drop D. So only your low E string 
tuned 2 frets down. So power chords are easier to grab. There now Barre’s or whatever 
want to call it.
I give only the chords, how many times its played its up to you to figure out.

Intro and Verse

E|------------------------|
B|------------------------|
G|------------------------|
D|-4-4-4-6/7--7-7-7-7-6---|
A|-4-4-4-6/7--7-7-7-7-6---|
D|-4-4-4-6/7--7-7-7-7-6---|

E|-------------------------|--------|
B|-------------------------|--------|
G|-------------------------|--------|
D|-7-7-7-7-6--3-3-3-3/4----|--3--4--|
A|-7-7-7-7-6--3-3-3-3/4----|--3--4--|
D|-7-7-7-7-6--3-3-3-3/4----|--3--4--|


Chorus:
E|-------------------------------------------------|
B|-------------------------------------------------|
G|-------------------------------------------------|
D|-4-4-4-4-4-4--7-7-7-7-7-7--6-6-6-6-6-6---3—--3---|
A|-4-4-4-4-4-4--7-7-7-7-7-7--6-6-6-6-6-6---3—--3---|
D|-4-4-4-4-4-4--7-7-7-7-7-7--6-6-6-6-6-6---3—--3---|

E|-------------------------------------------------|
B|-------------------------------------------------|
G|-------------------------------------------------|
D|-4-4-4-4-4-4--7-7-7-7-7-7--6-6-6-6-6-6---3—--33--|
A|-4-4-4-4-4-4--7-7-7-7-7-7--6-6-6-6-6-6---3—--33--|
D|-4-4-4-4-4-4--7-7-7-7-7-7--6-6-6-6-6-6---3—--33--|

[ Tab from: http://www.guitaretab.com/m/mindless-self-indulgence/59019.html ]
Verse 2:
E|-------------------|-------|-------|
B|-------------------|-------|-------|
G|-6~~--------4~~----|-3-3-3-|---3---|
D|-6~~--------4~~----|-3-3-3-|---3---|
A|-4~~--------2~~----|-1-1-1-|---1---|
D|-------------------|-------|-------|
                      First   Second
                      Time    Time

Or you could play it in dropD style
E|-------------------|-------|-------|
B|-------------------|-------|-------|
G|-------------------|-------|-------|
D|-11~~-------9~~----|-8-8-8-|---8---|
A|-11~~-------9~~----|-8-8-8-|---8---|
D|-11~~-------9~~----|-8-8-8-|---8---|
                      First   Second
                      Time    Time


Verse 3:
E|-------------------------------------------|
B|-------------------------------------------|
G|-------------------------------------------|
D|-9-9-9-9--7-7-7-7--11-11-11--15-15-—16-—15-|
A|-9-9-9-9--7-7-7-7--11-11-11--15-15-—16-—15-|
D|-9-9-9-9--7-7-7-7--11-11-11--15-15-—16—-15-|

E|-------------------------------------|
B|-------------------------------------|
G|-------------------------------------|
D|-9-9-9-9—-7-7-7-7--11-11-11--15--16--|
A|-9-9-9-9--7-7-7-7--11-11-11--15--16--|
D|-9-9-9-9--7-7-7-7--11-11-11--15--16--|

That was it. I say it again, but these are only chords, and you have to figure out how 
times the chords are played and how many times the verses chorus etc… Do you think I am 
well it is very easy to figure out yourself.
Enjoy the tab, enjoy the music and good luck.
Don’t forget, always practice.

Greetz Tias
Related for Shut Me Up tab
Advertisement will be closed in 10 seconds