Song name
# A B C D E F G H I J K L M N O P Q R S T U V W X Y Z

Mineral - If I Could tab

IF I COULD

Intro B5 - A5 - D5 - E5 - G5 - E5 - G5 - E5

Intro (Guitar 1)
E -------------------------------------------------------------------|
B -------------------------------------------------------------------|
G -------------------------------------------------------------------|
D -0-0-0-0-0-0-0-0-0-0-0-0--0--0--0-0--0--0--0--0--0--0--0--0--0--0--|
A -4-4-4-4-5-5-5-5-7-9-9-10-10-10-9-12-12-12-12-12-12-12-12-12-12-12-|
E -------------------------------------------------------------------|

Intro (Guitar 2)
E -----------------------------------------------------------------|
B -----------------------------------------------------------------|
G -----------------------------------------------------------------|
D -0-0-0-0-0-0-0-0-------------------------------------------------|
A -2-2-2-2-0-0-0-0-0-0-0-0-0-0-0-0-0-0-0-0-0-0-0-0-0-0-0-0-0-0-0-0-|
D -----------------0-0-0-0-2-2-2-2-5-5-5-5-2-2-2-2-5-5-5-5-2-2-2-2-|


*****************************************
Album: The Power of Failing
Tap to rate this tab
# A B C D E F G H I J K L M N O P Q R S T U V W X Y Z