Mineral - Love Letter Typewriter tab

-------------------------------------------------------------------------------
			LOVELETTERTYPEWRITER - Mineral
-------------------------------------------------------------------------------
Artist: Mineral
Album: End Serenading
Song: Love Letter Typewriter
Tabbed by: Alex
Email: theonethird, gmail

Tuning: EACGBE (tune the D string down to C)
Tempo: 65bpm

Make sure to let those twinkly arpeggios ring out


Intro

Guitar 1

e|-----------------------------------|
B|-----------------------------------|
G|--------------------0-----0---0----|
C|---0-0---0-0-0--------0-----0---0--| x4
A|-2-----3-------3/-8-----7----------|
E|-----------------------------------|


Verse 1 (Summer unfolded...)

Guitar 1

e|-----------------------------------|
B|-----------------------------------|
G|--------------------0-----0---0----|
C|---0-0---0-0-0--------0-----0---0--| x8
A|-2-----3-------3/-8-----7----------|
E|-----------------------------------|

Guitar 2

e|----------------------------------|
B|----------------------------------|
G|----------------------------------|
C|-0-0-0-0-0-0-0-0-0-0-0-0-0-0-0-0--| x8
A|-7-7-7-7-7-5-5-7-8-8-8-7-7-5-5-7--|
E|----------------------------------|


Instrumental break

Guitar 1

e|-------------------------------------------|
B|-------------------------------------------|
G|-------------------------------------------|
C|-------------------------------------------| x2
A|-12-12-12-12-12-12-12-12/-7-7-7-7-7-7-7-7\-|
E|-------------------------------------------|

Guitar 2

e|----------------------------------|
B|----------------------------------|
G|---------------0-0-0-0-0-0-0-0-0--|
C|-----------------4-4-4-5-7-7-5-4--| x2
A|-3-3-3-2-2-3-3--------------------|
E|----------------------------------|


Verse 2 (There glowing...)

Guitar 1

e|-----------------------------------|
B|-----------------------------------|
G|--------------------0-----0---0----|
C|---0-0---0-0-0--------0-----0---0--| x8
A|-2-----3-------3/-8-----7----------|
E|-----------------------------------|

Guitar 2

e|----------------------------------|
B|----------------------------------|
G|----------------------------------|
C|-0-0-0-0-0-0-0-0-0-0-0-0-0-0-0-0--| x8
A|-7-7-7-7-7-5-5-7-8-8-8-7-7-5-5-7--|
E|----------------------------------|


Verse 3 (Will you ever know...)

Guitar 1

e|-------------------------------------------|
B|-------------------------------------------|
G|-------------------------------------------|
C|-------------------------------------------| x7
A|-12-12-12-12-12-12-12-12/-7-7-7-7-7-7-7-7\-|
E|-------------------------------------------|

e|-------------------------|
B|-------------------------|
G|-------------------------|
C|-------------------------| x1
A|-12-12-12-12-12-12-12-7--|
E|-------------------------|

Guitar 2

e|----------------------------------|
B|----------------------------------|
G|---------------0-0-0-0-0-0-0-0-0--|
C|-----------------4-4-4-4-5-7-5-4--| x7
A|-3-3-3-2-2-3-3--------------------|
E|----------------------------------|

e|------------------|
B|------------------|
G|---------------0--|
C|------------------| x1
A|-3-3-3-2-2-3-3----|
E|------------------|

Guitar 3

e|----|
B|----|
G|----|
C|----| x4
A|----|
E|----|

e|---10-------10-------10---10-------12-------10--|
B|------13-------13------------13-------13--------|
G|---------12-------12------------12-------12-----|
C|------------------------------------------------| x3
A|------------------------------------------------|
E|------------------------------------------------|

e|---10-------10-------12---|
B|------13-------13---------|
G|---------12-------12------|
C|--------------------------| x1
A|--------------------------|
E|--------------------------|



************************************

| /   slide up
| \   slide down
| h   hammer-on
| p   pull-off
| ~   vibrato
| +   harmonic
| x   Mute note
| b   Bend
| pb  Pre-bend
| br  Bend release
| pbr Pre-bend release
| brb Bend release bend

************************************
Tap to rate this tab
 
# A B C D E F G H I J K L M N O P Q R S T U V W X Y Z