Song name
# A B C D E F G H I J K L M N O P Q R S T U V W X Y Z

Mineral - Me tab

e--------------------------------------|
b--------------------------------------|
g--------------------------------------|
d--2-2-2-2--2-2-2-2--2-2-2-2--3-3-3-3--|
a---3-3-3-3--2-2-2-2--0-0-0-0--0-0-0-0-|
e--------------------------------------|


e--------------------------------------|
b--------------------------------------|
g--------------------------------------|
d--2-2-2-2--2-2-2-2--2-2-2-2--3-3-3-3--|
a---3-3-3-3--2-2-2-2--0-0-0-0--0-0-0-0-|
e--------------------------------------|


e--------------------------------------|
b--------------------------------------|
g--------------------------------------|
d--2-2-2-2--2-2-2-2--2-2-2-2--3-3-3-3--|
a---3-3-3-3--2-2-2-2--0-0-0-0--0-0-0-0-|
e--------------------------------------|


e--------------------------------------|
b--------------------------------------|
g--------------------------------------|
d--2-2-2-2--2-2-2-2--2-2-2-2--3-3-3-3--|
a---3-3-3-3--2-2-2-2--0-0-0-0--0-0-0-0-|
e--------------------------------------|
Tap to rate this tab
# A B C D E F G H I J K L M N O P Q R S T U V W X Y Z