Song name
# A B C D E F G H I J K L M N O P Q R S T U V W X Y Z

Ming Tea - Daddy Wasnt There tab

-----------------------------------------------------------------
		Daddy wasnt there - Ming tea
-----------------------------------------------------------------

Artist   : Ming tea
Title    : Daddy wasnt there
Album    : Austin powers in Goldmember Soundtrack
Tabbed by: Sebastian A.


Intro/Verse(w/distortion):
e-------0--------------------------------------------------------|
b-------0--------------------------------------------------------|
g-------1--1h2-1h2-1h2--(intro x4) 4th time the drums comes in---|
D-------2--2---2---2---------------------------------------------|
A--0-0--2--2---2---2---------------------------------------------|
E--0-0--0--0---0---0---------------------------------------------|
  pm
End Of Verse:
e-0--------------------------------------------------------------|
B-2--------------------------------------------------------------|
G-2-----just continue, until he sings: daddy wasnt there---------|
D-2--------------------------------------------------------------|
A-0--------------------------------------------------------------|
E----------------------------------------------------------------|
 pm   pm
To take me...     It seems he doesnt......



Chorus:
e-0--------------------------------------------------------------|
B-2--------------------------------------------------------------|
G-2--------------------------------------------------------------|
D-2--until break-------------------------------------------------|
A-0--------------------------------------------------------------|
E----------------------------------------------------------------|
 First baptized......

 Solo/Fill:
 Havent figured the hole out yet but here is the start:

e----------------------------------------------------------------|
B----------------------------------------------------------------|
G----------------------------------------------------------------|
D----------------------------------------------------------------|
A--17b~~~~---17--16--14------------------------------------------|
E-----------------------\12--------------------------------------|

And then make some solo in E major blues scales, i think:

Order:
Intro
Verse(x2)
Chorus
Solo
Chorus


| /  slide up
| \  slide down
| h  hammer-on
| p  pull-off
| ~  vibrato
| +  harmonic
| x  Mute note
| pm Palm mute
====================================================================
Tap to rate this tab
 
# A B C D E F G H I J K L M N O P Q R S T U V W X Y Z