Song name
# A B C D E F G H I J K L M N O P Q R S T U V W X Y Z

Mini Viva - I Wish chords

 -- Mini Viva  I Wish --

standard tuning EADGBE

tabbed by x-tasha-x
                                          
-- CAPO 3rd --

Hey this song is kinda the same all the way through =D


Intro:
E||-33333333-3333-3333--333333-33-000000-000--|
B||-11111111-1111-1111--111111-11-111111-111--|
G||-22222222-0000-2222--222222-00-222222-000--|
D||-33333333-0000-2222--333333-00-222222-222--|
A||----------2222-0000---------22-000000-333--|
E||----------3333--------------33-------------|


Verse:
I was one with you, breathing...
E||-33333333-3333-3333--333333-33-000000-000--|
B||-11111111-1111-1111--111111-11-111111-111--|
G||-22222222-0000-2222--222222-00-222222-000--|
D||-33333333-0000-2222--333333-00-222222-222--|
A||----------2222-0000---------22-000000-333--|
E||----------3333--------------33-------------|


Pre Chorus:
and I wish that I had tried..
E||-33333333-3333-3333--333333-33-000000-000--|
B||-11111111-1111-1111--111111-11-111111-111--|x2
G||-22222222-0000-2222--222222-00-222222-000--|
D||-33333333-0000-2222--333333-00-222222-222--|
A||----------2222-0000---------22-000000-333--|
E||----------3333--------------33-------------|


Chorus:
ohh no, he could be the one...
E||-33333333-3333-3333--333333-33-000000-000--|
B||-11111111-1111-1111--111111-11-111111-111--|
G||-22222222-0000-2222--222222-00-222222-000--|
D||-33333333-0000-2222--333333-00-222222-222--|
A||----------2222-0000---------22-000000-333--|
E||----------3333--------------33-------------|


Pre Verse 2:
E||-33333333-3333-3333--|
B||-11111111-1111-1111--|
G||-22222222-0000-2222--|
D||-33333333-0000-2222--|
A||----------2222-0000--|
E||----------3333-------|


Verse 2:
I was watching you, leaving...
E||-33333333-3333-3333--333333-33-000000-000--|
B||-11111111-1111-1111--111111-11-111111-111--|
G||-22222222-0000-2222--222222-00-222222-000--|
D||-33333333-0000-2222--333333-00-222222-222--|
A||----------2222-0000---------22-000000-333--|
E||----------3333--------------33-------------|


Pre Chorus:
and I wish that I had tried..
E||-33333333-3333-3333--333333-33-000000-000--|
B||-11111111-1111-1111--111111-11-111111-111--|x2
G||-22222222-0000-2222--222222-00-222222-000--|
D||-33333333-0000-2222--333333-00-222222-222--|
A||----------2222-0000---------22-000000-333--|
E||----------3333--------------33-------------|


Chorus:
ohh no, he could be the one...
E||-33333333-3333-3333--333333-33-000000-000--|
B||-11111111-1111-1111--111111-11-111111-111--|x2
G||-22222222-0000-2222--222222-00-222222-000--|
D||-33333333-0000-2222--333333-00-222222-222--|
A||----------2222-0000---------22-000000-333--|
E||----------3333--------------33-------------|


Bridge:
Feels like starry eyed...
E||-33333333-3333-3333--333333-33-000000-000--|
B||-11111111-1111-1111--111111-11-111111-111--|
G||-22222222-0000-2222--222222-00-222222-000--|
D||-33333333-0000-2222--333333-00-222222-222--|
A||----------2222-0000---------22-000000-333--|
E||----------3333--------------33-------------|

then:
E||-33333333-3333-3333--333333-33-0000000000-000--|
B||-11111111-1111-1111--111111-11-1111111111-111--|
G||-22222222-0000-2222--222222-00-2222222222-000--|
D||-33333333-0000-2222--333333-00-2222222222-222--|
A||----------2222-0000---------22-0000000000-333--|
E||----------3333--------------33-----------------|


Pre Chorus:
and I wish that I had tried..
E||-33333333-3333-3333--333333-33-0000000000-000--|
B||-11111111-1111-1111--111111-11-1111111111-111--|
G||-22222222-0000-2222--222222-00-2222222222-000--|
D||-33333333-0000-2222--333333-00-2222222222-222--|
A||----------2222-0000---------22-0000000000-333--|
E||----------3333--------------33-----------------|


End with Chorus:
ohh no, he could be the one...
E||-33333333-3333-3333--333333-33-000000-000--|
B||-11111111-1111-1111--111111-11-111111-111--|x2
G||-22222222-0000-2222--222222-00-222222-000--|
D||-33333333-0000-2222--333333-00-222222-222--|
A||----------2222-0000---------22-000000-333--|
E||----------3333--------------33-------------|


http://www.miniviva.com/
Tap to rate this tab
# A B C D E F G H I J K L M N O P Q R S T U V W X Y Z