Song name
# A B C D E F G H I J K L M N O P Q R S T U V W X Y Z

Miniature Tigers - White Magic tab

Highlighted       Show chord diagrams
-------------------------------------------------------------------------------
			     WHITE MAGIC - Miniature Tigers
-------------------------------------------------------------------------------
Tabbed by: Jimmy
Email: jimi00jimi@hotmail.com

Tuning: Standard

INTRO: 
G-Am-C-G

VERSE:
G                          Am
So you want a piece of the pie
                     C                     G   
I'll have to wonder why no one's trying to stop me
G                          Am
I'll use black magic technique
                       C                       G
To sweep you off your feet, maybe you could be mine

CHORUS:
G       Am         C     G
Do you believe in white magic?
G       Am         C     G
Do you believe in white magic?

VERSE:
G                                Am
Small, you fit in the palm of my hand
                      C                        G            
Well, I could be your man, or I could be some creep you know (down the street you know)
G                                  Am
And it hurt, you fell through thin ice
                          C                         G 
I'll thaw you out with my eyes, maybe you could be mine

CHORUS:
G       Am         C     G
Do you believe in white magic?
G       Am         C     G
Do you believe in white magic?

SOLO:
e|-------------------------------------------------------------|
b|-12-----10/12-10-8-7-7-----------------------------0-0-0-0---|
g|----8-9----------------9-8-9-9/11-9-9-7-7-5-4-5-4~-4b5-4b5---|


e|-----------------------19-19-19-17-17-17-15-15-15-14-14-14|
b|-8-8~-8-7-8-8/10------------------------------------------|
g|-----------------9-8-9~-----------------------------------|


e|------------------------------|
b|-15-15-17/19-17-17-17---------|
g|----------------------16-17-16|

Jim
Tap to rate this tab
# A B C D E F G H I J K L M N O P Q R S T U V W X Y Z