Song name
# A B C D E F G H I J K L M N O P Q R S T U V W X Y Z

Miniature Tigers - Cannibal Queen tab

Highlighted       Show chord diagrams
If u wish, tune your guitar on Eb and play D / G / Em / E


intro Db / F# / Eb / AB

Db (p.m.)
This is not a test or an SOS

I'm no longer on a quest to get girls undressed
F# (p.m.)
I search through their hearts and no treasure found
      Eb (p.m.)                AB (p.m.)
I'm so lucky this one lets dogs hang around
     Db
It's good having somebody good for a change
                                                   F#
I thought that no good dirty cheats had drove me insane

I had finally given up on love and romance
     Eb                   AB                        Db
If I laid down the sword, I'm giving my innocence

(Chorus)

AB (Ab/G/F#/F/Eb)
Comin' for your heart like a cannibal
        Db
Oh, she lets me right in and I fed 'til I'm full
   AB (Ab/G/F#/F/Eb)
If something goes wrong, I'm accountable
       Db
Oh, a life without her is no life at all
  AB                      F#        Eb                Db
I la la la la la la la la love you, cannibal queen

e ----6--6-------6--6----------|
B ----6--6-------6--6----------|
G ----7--7-------6--6----------|
D ----8--9-------7--7----------|
A ----6--6-------8--9----------|
E ----6--6-------6--6----------|

    Db
If she ever left me, I would break down and die
                                    F#
Like Mickey and Piu could bury me alive

Another pretty girl I would love to admire
      Eb                              AB                    Db
From a distance, but she's here, so I'll jump in the fire

AB (Ab/G/F#/F/Eb)
Comin' for your heart like a cannibal
        Db
Oh, she lets me right in and I fed 'til I'm full
   AB (Ab/G/F#/F/Eb)
If something goes wrong, I'm accountable
       Db
Oh, a life without her is no life at all
  AB                      F#        Eb                Db
I la la la la la la la la love you, cannibal queen


Solo


     F#   Db   C    Ab                               still have to figure out part 2
e --------------------------------------------------|
B ---6----------------------------6-----------------|
G -----5-5-5-3-3-3-3-1--------6-8-------------------|
D --------------------------------------------------|
A --------------------------------------------------|
E --------------------------------------------------|


(Repeat Chorus)
Tap to rate this tab
 
# A B C D E F G H I J K L M N O P Q R S T U V W X Y Z