Song name
# A B C D E F G H I J K L M N O P Q R S T U V W X Y Z

Miniature Tigers - Like Or Like-like tab

intro
E-|---------------------------------------------------------------|
B-|------------------------5--4--3------3---------------------3---|
G-|--4------------------------------------------------------------|
D-|---------------------------------------------------------------|
A-|-----2--2--2--2--2----------------3-------3---3---3---3--3-----|
E-|---------------------------------------------------------------|

Verse
E-|------------3-------5--5--------|
B-|------------3---3---5--7--------|
G-|-7--7--5----4---3---6--6--------|
D-|-7--7--5----5---3---7--7--------|
A-|-5--4--3----5---x---7--5--------|
E-|------------3---3---5-----------|

Chorus
G D G D
G A
D Bm A

Tap to rate this tab
# A B C D E F G H I J K L M N O P Q R S T U V W X Y Z