Song name
# A B C D E F G H I J K L M N O P Q R S T U V W X Y Z

Miniature Tigers - Hot Venom tab

-------------------------------------------------------------------------------
			     Hot Venom - Miniature Tigers
-------------------------------------------------------------------------------
Tabbed by: scootergomoo
Email: scootergomoo@yahoo.com

Tuning: Standard

SOLO:
e|-5\7-5----------5---------------------|
B|-------7--5--7----7--5----------------|
G|------------------------7-------------|
D|--------------------------------------|
A|--------------------------------------|
E|--------------------------------------|

e|-5\7-5----------5---------------------|
B|-------7--5--7----7-------------------|
G|--------------------------------------|
D|--------------------------------------|
A|--------------------------------------|
E|--------------------------------------|

e|-5\7-5----------5---------------------|
B|-------7--5--7----7--5----------------|
G|------------------------7-7--6--4--2~-|
D|--------------------------------------|
A|--------------------------------------|
E|--------------------------------------|

e|-10--9--10-10\14-12-12-11-12---14-15--|
B|--------------------------------------|
G|--------------------------------------|
D|--------------------------------------|
A|--------------------------------------|
E|--------------------------------------|

e|--------------------------------------|
B|-14--14--12--10-----------------------|
G|-----------------11--9--7-------------|
D|--------------------------------------|
A|--------------------------------------|
E|--------------------------------------|

I just kicked this up by ear. I believe it's accurate.. Anyway, have fun.
Be sure to support this art. Buy the album!

| /  slide up
| \  slide down
| h  hammer-on
| p  pull-off
| ~  vibrato
| +  harmonic
| x  Mute note
===============================================================================
Tap to rate this tab
 
# A B C D E F G H I J K L M N O P Q R S T U V W X Y Z