Miniature Tigers - Cannibal Queen tab

----------------------------------------------------------------------------
			     Cannibal Queen-Miniature Tigers
----------------------------------------------------------------------------
Tabbed by: Jonmwood95
Email: j.m.wood95@live.co.uk

Tuning: EADGBe

MUTE ALL NOTES IN CHORUS AND VERSE WITH STRUMMING HAND

INTRO:
e|---------------------|
B|---------------------|
G|---6-6-6-6-6-6-6-6---|
D|---6-6-6-6-6-6-6-6---| X4
A|---4-4-4-4-4-4-4-4---|
E|---------------------|

VERSE: repeates twice
e|---------------------|    e|-------------------|
B|---------------------|    B|-------------------|
G|---6-6-6-6-6-6-6-6---|    G|-------------------|
D|---6-6-6-6-6-6-6-6---| X8 D|-4-4-4-4-4-4-4-4---| X4
A|---4-4-4-4-4-4-4-4---|    A|-4-4-4-4-4-4-4-4---|
E|---------------------|    E|-2-2-2-2-2-2-2-2---|

e|------------------|        e|------------------|
B|------------------|        B|------------------|
G|-8-8-8-8-8-8-8-8--|        G|------------------|
D|-8-8-8-8-8-8-8-8--| X2     D|-6-6-6-6-6-6-6-6--| X2
A|-6-6-6-6-6-6-6-6--|        A|-6-6-6-6-6-6-6-6--|
E|------------------|        E|-4-4-4-4-4-4-4-4--|

 PRE-CHORUS:
e|---------------------|
B|---------------------|
G|---6-6-6-6-6-6-6-6---|
D|---6-6-6-6-6-6-6-6---| X4
A|---4-4-4-4-4-4-4-4---|
E|---------------------|

CHORUS:
e|-----------------|      e|-------------------|
B|-----------------|      B|-------------------|
G|-----------------|      G|--6-6-6-6-6-6-6-6--|
D|-6-6-6-6-6-6-6-6-| X4   D|--6-6-6-6-6-6-6-6--| X4
A|-6-6-6-6-6-6-6-6-|      A|--4-4-4-4-4-4-4-4--|
E|-4-4-4-4-4-4-4-4-|      E|-------------------|

e|-----------------|      e|-------------------|
B|-----------------|      B|-------------------|
G|-----------------|      G|--6-6-6-6-6-6-6-6--|
D|-6-6-6-6-6-6-6-6-| X4   D|--6-6-6-6-6-6-6-6--| X4
A|-6-6-6-6-6-6-6-6-|      A|--4-4-4-4-4-4-4-4--|
E|-4-4-4-4-4-4-4-4-|      E|-------------------|

Stop muting:
e|-------------------------------|
B|-6-4----------------6---6---6--|
G|-----6-5-3---------------------|
D|-----------6-4-3-4-------------|
A|-------------------------------|
E|-------------------------------|

e|-------------------------------|
B|-------------------------------|
G|-6--8--6-----------------------|
D|-6--8--6-------6---8---6-------|
A|-4--6--4-------6---8---6-------|
E|---------------4---6---4-------|


SOL0:

e|---------------------------------------------------------------------------|
B|--6------------------------------------------------------------------------|
G|--------5-5-5--3-3-3p1h3-3p1h3-1--------6-8-8b-8---3b-3-1-3------------3-6-|
D|-------------------------------------------------------------4-3-4---4-----|
A|---------------------------------------------------------------------------|
E|---------------------------------------------------------------------------|

e|---------------------------------------------------------------------------|
B|---------7-6---------------------------------------------------------------|
G|-5--5-8--------------------6-----------------------------------------------|
D|----------------------3-4-6------------------------------------------------|
A|------------------4-6------------------------------------------------------|
E|---------------------------------------------------------------------------|

Back to the chorus again and then end on:

e|-------------------------|
B|-------------------------|
G|---6-6-6-6-6-6-6-6------6|
D|---6-6-6-6-6-6-6-6-- X4-6|
A|---4-4-4-4-4-4-4-4------4|
E|-------------------------|

************************************

| /   slide up
| \   slide down
| h   hammer-on
| p   pull-off
| ~   vibrato
| +   harmonic
| x   Mute note
| b   Bend
| pb  Pre-bend
| br  Bend release
| pbr Pre-bend release
| brb Bend release bend

************************************
Tap to rate this tab
 
# A B C D E F G H I J K L M N O P Q R S T U V W X Y Z