Song name
# A B C D E F G H I J K L M N O P Q R S T U V W X Y Z

Miniature Tigers - Dark Tower tab

Hi guys, this is my first tab so please comment if its totally off. thankks :)

Tuning: Standard

Intro: (D)
e|--------2--|
B|----3------|
G|------2----| x8
D|--0--------|
A|-----------|
E|-----------|

Verses ( D, Am, C, G, A, D)

e|--------2-------2-------2-------2-------------------------------------------|
B|----3-------3-------3-------3-----------1---------1---------1---------1-----|
G|------2-------2-------2-------2-----2--------2--------2---------2-----------|
D|--0-------0-------0-------0------------2--------2--------2---------2--------|
A|----------------------------------0---------0--------0--------0-------------|
E|----------------------------------------------------------------------------|

e|-----------------------------------------------3--------3-------3------3-|
B|---------1--------1-------1---------1-----0--------0-------0-------0-----|
G|----0--------0-------0---------0------------0--------0-------0-------0---|
D|-------2--------2-------2---------2--------------------------------------|
A|--3--------3-------3---------3-------------------------------------------|
E|----------------------------------------3---------3-------3-------3------|

e|-----------------------------------------------1--------1-------1-------1-----|
B|--------2--------2--------2---------2-----3--------3-------3--------3---------|
G|----2--------2-------2---------2------------2--------2-------2--------2-------|
D|------2--------2--------2---------2----0--------0--------0--------0-----------|
A|--0-------0--------0---------0------------------------------------------------|
E|------------------------------------------------------------------------------|

Chorus: It follows the same plucking pattern as above

G
Living in a dark tower, getting darker by the hour

C                    G
Will I wake up from a dark, dark daydream

                   C        D        Am   A       D
Nothing can wake me from myself, not you or noone else
Tap to rate this tab
 
# A B C D E F G H I J K L M N O P Q R S T U V W X Y Z