Miniature Tigers - Rock N Roll Mountain Troll tab

Intro

--5----3----5--5--5--5--------------------|
--6----3----5--5--5--5--------------------|
--7----4----5--5--5--5--------------------|
--7----5----7--7--7--7--------------------|
--5----5----7--8--9--7--------------------|
-------3----5--5--5--5--------------------|
  Dm   G    Am ?  ?  Am

"Stoned at 3 am...."

--5----3----5--------------------------|
--6----3----5--------------------------|
--7----4----5--------------------------|
--7----5----7--------------------------|
--5----5----7--------------------------|
-------3----5--------------------------|
  Dm   G    Am

"I think I really hit a low..."


--5----4----0----1----------------------|
--6----6----1----1----------------------|
--7----4----0----2----------------------|
--7----6----2----3----------------------|
--5----5----3----3----------------------|
-----------------1----------------------|
  Dm  Ddim  C    F

"You never leave the house..."

-1---5--|-5----3----5--5--5--5-------------|
-1---5--|-6----3----5--5--5--5-------------|
-2---5--|-7----4----5--5--5--5-------------|
-3---7--|-7----5----7--7--7--7-------------|
-3---7--|-5----5----7--8--9--7-------------|
-1---5--|------3----5--5--5--5-------------|
 F   Am   Dm   G    Am ?  ?  Am

"Does that make me crazy or no..."

--5----3----5---4---5----3--3----------|
--6----3----5---6---6----3--3----------|
--7----4----6---4---7----4--4----------|
--7----3----5---6---7----5--3----------|
--5----5----7---5---5----5--5----------|
-------3----5------------3--3----------|
  Dm   G7   A7 Ddim Dm   G  G7

"Climb into my wellness skull..."

Verse

-----5---3---------------------------|
-1---6---3---1-----------------------|
-0---7---4---0-----------------------|
-2---7---5---2-----------------------|
-3---5---5---3-----------------------|
-3-------3---3-----------------------|
 C   Dm  G   C


Chorus

-----5---3-1---------------------------|
-1---6---3-1---1-----------------------|
-0---7---4-2---0-----------------------|
-2---7---5-3---2-----------------------|
-3---5---5-3---3-----------------------|
-3-------3-1---3-----------------------|
 C   Dm  G F   C


Lyrics-

stoned at 3am and talking to myself in public
i think i really hit a low, don't you think so
you never leave the house
you never leave the house
come out
does that make me crazy or no
climb into my wellness skull
oh no

you plucked out crime and punishment
from the bookcase under the stairs
the staircase where i stared into your mind
crying on the curb outside
makes you look like someone died
you look like me the night i split in two

climb into the wellness skull
let it separate you from yourself
let it separate from you heart and thoughts
that you can't control
rock n' roll mountain troll
living out your life inside a room
surrounded by the things you thought you knew you wanted

oh good grief, i'm tied and bound
stoned at some hotel downtown
the hotel where i stared into your mind
floating in the pool upstairs
all i got were nasty stares
you look like me the night i split in two




Sorry I couldn't figure out that crazy little break down in the middle.

I just put down the basic chords so if you are "alright" at guitar you should be able to 
out the strumming.

I'm about 99% that this is right because I saw them last night in concert and was 
right in front. Enjoy this!

Questions? Allenmanbear@yahoo.com
Tap to rate this tab
 
# A B C D E F G H I J K L M N O P Q R S T U V W X Y Z