Song name
# A B C D E F G H I J K L M N O P Q R S T U V W X Y Z

Miniature Tigers - Dark Tower tab

Standard Tuning
4/4

Chords first, then tab.

Intro:

e --X---|
B --12--|
G --11--|   (4 Measures)
D --12--|
A --X---|
E --10--|


Verse:

e --X----X---X---X---X---X---X---|
B --10---5---2---0---7---8---12--|
G --11---4---2---0---6---6---11--|
D --12---5---4---2---7---7---12--|
A --X----X---4---2---X---X---X---|
E --10---3---2---0---5---5---10--|


Chorus:

e --X---X----X---X----X---X---X---X----|
B --5---12---5---12---5---2---7---12---|
G --4---11---4---11---4---2---6---11---|
D --5---12---5---12---5---4---7---12---|
A --X---X----X---X----X---4---X---X----|
E --3---10---3---10---3---2---5---10---|

The very last time through the chorus,
the chords are the same except
for a slight variation, instead of
4 measures of the 3rd chord you play (G6?),
only play 2 measures of it and play this chord for
the other 2 measures.

e --X--|
B --5--|
G --3--|
D --5--|
A --X--|
E --3--|


Bridge:

Comes at the end of the 2nd time through chorus.

e --X---------X-----X-----X---|
B --2---------2-----1-----0---|
G --2---------2-----1-----0---|
D --4---------4-----3-----2---|
A --4---------4-----3-----2---|
E --2---------2-----1-----0---|
   (Strum last 3 chords once and let the Em ring)
Not youuu, or no,  body,  else.


e --X--------X---X-----X---|
B --0--------7---8-----12--|
G --0--------6---6-----11--|
D --2--------7---7-----12--|
A --2--------X---X-----X---|
E --0--------5---5-----10--|
   (Strum chords once and let them all ring)
   Ahhh...   Ahhh........


Ending:

e --X---
B --12--|
G --11--|
D --12--|
A --X---
E --10--
 (play til fade out)

Tablature:

Picking pattern stays same throughout.
You pluck the bass note with your thumb
and use your index finger to stroke/pluck the
next notes in a way similar to how John Mayer
plays "Stop This Train".  I'll do my best to
display it here.

Intro:

e --------------------|
B --------12------12--|
G ------11------11----|
D ------12----1212----|
A -------X-------X----|
E --10------10--------|

Verse:

e ------------------------------------------------------------|
B --------10------10------10------10------5----5-----5----5---|
G ------11------11------11------11-------4----4-----4----4----|
D ------12----1212------12----1212-------5---55-----5---55----|
A -------X-------X-------X-------X-------X----X-----X----X----|
E --10------10------10------10--------3-----3----3-----3------|

    Don't                   ruuuuun away                 cause

e ------------------------------------------------------------|
B --------2------2-------2------2------0-----0-----0------0---|
G -------2------2-------2------2------0-----0-----0------0----|
D -------4-----44-------4-----44------2----22-----2-----22----|
A -------4------4-------4------4------2-----2-----2------2----|
E ---2-------2------2------2-------0-----0-----0------0-------|

     I         don't       where
                   know        you go.

e ----------------------------------------------------------------|
B ------7-----7-----8-----8--------12-------12-------12--------12-|
G -----6-----6-----6-----6-------11-------11-------11--------11---|
D -----7----77-----7----77-------12-----1212-------12------1212---|
A -----X-----X-----X-----X--------X--------X--------X---------X---|
E --5-----5-----5-----5------10-------10--------10-------10-------|

    I    don't  want  to     know.


Once you learn that, you pretty much know the whole song.
Just follow the chord progression shown up top and my notes and that's it.
Let me know if you find anything wrong.  Have fun!
Tap to rate this tab
 
# A B C D E F G H I J K L M N O P Q R S T U V W X Y Z