Song name
# A B C D E F G H I J K L M N O P Q R S T U V W X Y Z

Miniature Tigers - Hot Venom chords

My favorite song from Tell It To The Volcano.
Basically same as the other chords version plus I added the tab for the ~solo~
My first tab, btw.




D, Em, A, D

     D              Em
Her venom makes me strong
   A                      D
Stronger than I am on my own
  D                   Em
Before too long I'll wake up to it gone
    A                      D
Wondering how I ever was happy

 D            Em
Hot venom is mixing with my blood
       A                          D
I can feel it on my fingers and taste it on her tongue
     D    D Em  A    Em                    A         D
It feels so good to fall in love with you oooh oooh oooh

 D                 Em
Her power turns me on
 A                               D
Turns me up on high and lets me burn
     D                  Em
You can't go back now that's not how it works
        A                         D
And as long as she's gone I can never be happy

 D            Em
Hot venom is mixing with my blood
       A                          D
I can feel it on my fingers and taste it on her tongue
     D      Em   A   Em                    A         D
It feels so good to fall in love with you oooh oooh oooh




e|--------------------------------------------------------------------------|
B|--------------------------------------------------------------------------|
G|--16-14----------14-------------------16-14-----------14------------------|
D|--------16-14-16----16-14-12----------------16-14-16-----16---------------|
A|--------------------------------------------------------------------------|
E|--------------------------------------------------------------------------|


e|--------------------------------------------------------------------------|
B|------------------------------------------------------19-1717-16-17-19-20-|
G|-16-14----------14---------------------------19-18-19---------------------|
D|-------16-14-16----16-14-12--12-11----------------------------------------|
A|-----------------------------------14-12----------------------------------|
E|--------------------------------------------------------------------------|


e|-----------------------------------------------------------------------------|
B|-----------------------------------------------------------------------------|
G|--18-18-16-14----------------------------------------------------------------|
D|---------------16-14-12~-----------------------------------------------------|
A|-----------------------------------------------------------------------------|
E|-----------------------------------------------------------------------------|



 D            Em
Hot venom is mixing with my blood
       A                          D
I can feel it on my fingers and taste it on her tongue
     D      Em   A   Em                    A         D
It feels so good to fall in love with you oooh oooh oooh
Tap to rate this tab
# A B C D E F G H I J K L M N O P Q R S T U V W X Y Z