Song name
# A B C D E F G H I J K L M N O P Q R S T U V W X Y Z

Minibosses - Ikari Warriors tab

-----------------------------------------------------------------------------
                         IKARI WARRIORS - Minibosses
-----------------------------------------------------------------------------


Tabbed by: SethMegadefan
Email: SethMegadefan@gmail.com

The Minibosses are an incredible NES music cover band. This is from their Brass album,
which is available free for download from their website: http://minibosses.com/


Tuning: Standard

e|--------------------------------|----------------------------9----|
B|--------------------------------|-------------------------------10|
G|--------------------------------|---------------------------------|
D|4-------4-------4---4-------4-4-|4-------4-------4---4------------|
A|--------------------------------|---------------------------------|
E|--------------------------------|---------------------------------|
 |                                |                                 |
e|--------------------------------|----------------------------9----|
B|7-------7-------7---7-------7-7-|7-------7-------7---7----------10|
G|--------------------------------|---------------------------------|
D|--------------------------------|---------------------------------|
A|--------------------------------|---------------------------------|
E|--------------------------------|---------------------------------|




e|------------------------------------|------------9-----------------------|
B|7-----------------10------------9---|7--------------10-7-----------------|
G|------------------------------------|------------------------------------|
D|------------------------------------|------------------------------------|
A|------------------------------------|------------------------------------|
E|------------------------------------|------------------------------------|
 |                                    |                                    |
e|------------------------------------|------------------------------------|
B|7---10p9p7-10p9p7-7---10p9p7-10p9p7-|7---10p9p7-10p9p7-7---10p9p7-10p9p7-|
G|------------------------------------|------------------------------------|
D|------------------------------------|------------------------------------|
A|------------------------------------|------------------------------------|
E|------------------------------------|------------------------------------|





e|----------------------9-----------------7---|--------------------------------------------|
B|10------------------------------------------|10--------------------10---10-10------------|
G|--------------------------------------------|--------------------------------------------|
D|--------------------------------------------|--------------------------------------------|
A|--------------------------------------------|--------------------------------------------|
E|--------------------------------------------|--------------------------------------------|
 |                                            |                                            |
e|--------------------------------------------|--------------------------------------------|
B|10--14p12p10-14p12p10-10--14p12p10-14p12p10-|10--14p12p10-14p12p10-10--14p12p10-14p12p10-|
G|--------------------------------------------|--------------------------------------------|
D|--------------------------------------------|--------------------------------------------|
A|--------------------------------------------|--------------------------------------------|
E|--------------------------------------------|--------------------------------------------|





e|------------------------------------|--------------7---9-----------9-9-9-|
B|7-----------------10------------9---|10----------------------------------|
G|------------------------------------|------------------------------------|
D|------------------------------------|------------------------------------|
A|------------------------------------|------------------------------------|
E|------------------------------------|------------------------------------|
 |                                    |                                    |
e|------------------------------------|------------------------------------|
B|7---10p9p7-10p9p7-7---10p9p7-10p9p7-|7---10p9p7-10p9p7-7---10p9p7-10p9p7-|
G|------------------------------------|------------------------------------|
D|------------------------------------|------------------------------------|
A|------------------------------------|------------------------------------|
E|------------------------------------|------------------------------------|





e|9---------------------------------------|----------------------------|
B|---------------------6---------6---6--6-|6--6-6--6-6--6-6--6-6-------|
G|----6--6-6---6-6---6-----6---6----------|----------------------------|
D|-----------6-----6---------6------------|----------------------------|
A|----------------------------------------|----------------------------|
E|----------------------------------------|----------------------------|
 |                                        |                            |
e|9---------------------------------------|(9)-------------------------|
B|----------------------------------------|----------------------------|
G|----------------------------------------|----------------------------|
D|----------------------------------------|----------------------------|
A|----------------------------------------|----------------------------|
E|----------------------------------------|----------------------------|





e|---------------------------------------------------|
B|15----15-15-15--14--12--14-------------------------|
G|----------------------------14-14------------------|
D|---------------------------------------------------|
A|---------------------------------------------------|
E|---------------------------------------------------|
 |                                                   |
e|-----------------------------------------------7h9-|
B|7----7-----7-----7-----7------7----7--7-7-10p9-----|
G|---------------------------------------------------|
D|---------------------------------------------------|
A|---------------------------------------------------|
E|---------------------------------------------------|





e|----------------12--14-----------------------------|
B|15----15-15-15----------14-------------------------|
G|---------------------------------------------------|
D|---------------------------------------------------|
A|---------------------------------------------------|
E|---------------------------------------------------|
 |                                                   |
e|-----------------------------------------------7h9-|
B|7----7-----7-----7-----7------7----7--7-7-10p9-----|
G|---------------------------------------------------|
D|---------------------------------------------------|
A|---------------------------------------------------|
E|---------------------------------------------------|




e|----------------------------14-14------------------|
B|15----15-15-15--14--12--14-------------------------|
G|---------------------------------------------------|
D|---------------------------------------------------|
A|---------------------------------------------------|
E|---------------------------------------------------|
 |                                                   |
e|-----------------------------------------------7h9-|
B|7----7-----7-----7-----7------7----7--7-7-10p9-----|
G|---------------------------------------------------|
D|---------------------------------------------------|
A|---------------------------------------------------|
E|---------------------------------------------------|





e|12----12-12-12--16--12--14----14-14-14--17--14--|16------------------|
B|------------------------------------------------|--------------------|
G|------------------------------------------------|--------------------|
D|------------------------------------------------|----------------2---|
A|------------------------------------------------|--------------------|
E|------------------------------------------------|--------------------|
 |                                                |                    |
e|------------------------------------------------|--------------------|
B|9----9-----9-----9------7----7-----7-----7------|5----5----5----5----|
G|------------------------------------------------|--------------------|
D|------------------------------------------------|--------------------|
A|------------------------------------------------|--------------------|
E|------------------------------------------------|--------------------|





e|--------------------------------|---------------------------------|
B|--------------------------------|---------------------------------|
G|--------------------------------|---------------------------------|
D|4-------4-------4---4-------4-4-|4-------4-------4---4--------4-4-|
A|--------------------------------|---------------------------------|
E|--------------------------------|---------------------------------|
 |                                |                                 |
e|--------------------------------|---------------------------------|
B|7-------7-------7---7-------7-7-|7-------7-------7---7--------7-7-|
G|--------------------------------|---------------------------------|
D|--------------------------------|---------------------------------|
A|--------------------------------|---------------------------------|
E|--------------------------------|---------------------------------|





e|---------------------------------------|----------------------------------------------|
B|--------------------------------2------|--------------------------------------2-------|
G|----2-------2---------2-----2--------2-|------2----------2-----------2--2-----------2-|
D|4--------4------4--------4--------4----|4--4-----4----4-----4--4--4--------------4----|
A|---------------------------------------|----------------------------------------------|
E|---------------------------------------|----------------------------------------------|
 |                                       |                                              |
e|---------------------------------------|----------------------------------------------|
B|--------------------------------2------|--------------------------------------2-------|
G|----2-------2---------2-----2--------2-|------2----------2-----------2--2-----------2-|
D|4--------4------4--------4--------4----|4--4-----4----4-----4--4--4--------------4----|
A|---------------------------------------|----------------------------------------------|
E|---------------------------------------|----------------------------------------------|





e|---------------------------------------|-----------------------------------------------|
B|--------------------------------2------|-----------------------------2--2--------------|
G|----2-------2---------2-----2--------2-|------2----------2-----------------------------|
D|4--------4------4--------4--------4----|4--4-----4----4-----4--4--4-----------4--4-4-4-|
A|---------------------------------------|-----------------------------------------------|
E|---------------------------------------|-----------------------------------------------|
 |                                       |                                               |
e|---------------------------------------|-----------------------------------------------|
B|--------------------------------2------|-----------------------------2--2--------------|
G|----2-------2---------2-----2--------2-|------2----------2-----------------------------|
D|4--------4------4--------4--------4----|4--4-----4----4-----4--4--4-----------4--4-4-4-|
A|---------------------------------------|-----------------------------------------------|
E|---------------------------------------|-----------------------------------------------|




e|-----------------------------9----|
B|--------------------------------10|
G|----------------------------------|
D|4\--------------------------------|
A|----------------------------------|
E|----------------------------------|
 |                                  |
e|-----------------------------9----|
B|7---10p9p7-10p9p7-7---10p9p7----10|
G|----------------------------------|
D|----------------------------------|
A|----------------------------------|
E|----------------------------------|





e|------------------------------------|------------9-----------------------|
B|7-----------------10------------9---|7--------------10-7-----------------|
G|------------------------------------|------------------------------------|
D|------------------------------------|------------------------------------|
A|------------------------------------|------------------------------------|
E|------------------------------------|------------------------------------|
 |                                    |                                    |
e|------------------------------------|------------------------------------|
B|7---10p9p7-10p9p7-7---10p9p7-10p9p7-|7---10p9p7-10p9p7-7---10p9p7-10p9p7-|
G|------------------------------------|------------------------------------|
D|------------------------------------|------------------------------------|
A|------------------------------------|------------------------------------|
E|------------------------------------|------------------------------------|





e|----------------------9-----------------7---|--------------------------------------------|
B|10------------------------------------------|10--------------------10---10-10------------|
G|--------------------------------------------|--------------------------------------------|
D|--------------------------------------------|--------------------------------------------|
A|--------------------------------------------|--------------------------------------------|
E|--------------------------------------------|--------------------------------------------|
 |                                            |                                            |
e|--------------------------------------------|--------------------------------------------|
B|10--14p12p10-14p12p10-10--14p12p10-14p12p10-|10--14p12p10-14p12p10-10--14p12p10-14p12p10-|
G|--------------------------------------------|--------------------------------------------|
D|--------------------------------------------|--------------------------------------------|
A|--------------------------------------------|--------------------------------------------|
E|--------------------------------------------|--------------------------------------------|





e|------------------------------------|--------------7---9-----------9-9-9-|
B|7-----------------10------------9---|10----------------------------------|
G|------------------------------------|------------------------------------|
D|------------------------------------|------------------------------------|
A|------------------------------------|------------------------------------|
E|------------------------------------|------------------------------------|
 |                                    |                                    |
e|------------------------------------|------------------------------------|
B|7---10p9p7-10p9p7-7---10p9p7-10p9p7-|7---10p9p7-10p9p7-7---10p9p7-10p9p7-|
G|------------------------------------|------------------------------------|
D|------------------------------------|------------------------------------|
A|------------------------------------|------------------------------------|
E|------------------------------------|------------------------------------|





e|9---------------------------------------|----------------------------|
B|---------------------6---------6---6--6-|6--6-6--6-6--6-6--6-6-------|
G|----6--6-6---6-6---6-----6---6----------|----------------------------|
D|-----------6-----6---------6------------|----------------------------|
A|----------------------------------------|----------------------------|
E|----------------------------------------|----------------------------|
 |                                        |                            |
e|9~--------------------------------------|(9)-------------------------|
B|----------------------------------------|----------------------------|
G|----------------------------------------|----------------------------|
D|----------------------------------------|----------------------------|
A|----------------------------------------|----------------------------|
E|----------------------------------------|----------------------------|





e|---------------------------------------------------|
B|15----15-15-15--14--12--14-------------------------|
G|----------------------------14-14------------------|
D|---------------------------------------------------|
A|---------------------------------------------------|
E|---------------------------------------------------|
 |                                                   |
e|-----------------------------------------------7h9-|
B|7----7-----7-----7-----7------7----7--7-7-10p9-----|
G|---------------------------------------------------|
D|---------------------------------------------------|
A|---------------------------------------------------|
E|---------------------------------------------------|





e|----------------12--14-----------------------------|
B|15----15-15-15----------14-------------------------|
G|---------------------------------------------------|
D|---------------------------------------------------|
A|---------------------------------------------------|
E|---------------------------------------------------|
 |                                                   |
e|-----------------------------------------------7h9-|
B|7----7-----7-----7-----7------7----7--7-7-10p9-----|
G|---------------------------------------------------|
D|---------------------------------------------------|
A|---------------------------------------------------|
E|---------------------------------------------------|




e|----------------------------14-14------------------|
B|15----15-15-15--14--12--14-------------------------|
G|---------------------------------------------------|
D|---------------------------------------------------|
A|---------------------------------------------------|
E|---------------------------------------------------|
 |                                                   |
e|-----------------------------------------------7h9-|
B|7----7-----7-----7-----7------7----7--7-7-10p9-----|
G|---------------------------------------------------|
D|---------------------------------------------------|
A|---------------------------------------------------|
E|---------------------------------------------------|





e|12----12-12-12--16--12--14----14-14-14--17--14--|16------------------|
B|------------------------------------------------|--------------------|
G|------------------------------------------------|--------------------|
D|------------------------------------------------|----------------2---|
A|------------------------------------------------|--------------------|
E|------------------------------------------------|--------------------|
 |                                                |                    |
e|------------------------------------------------|--------------------|
B|9----9-----9-----9------7----7-----7-----7------|5----5----5----5----|
G|------------------------------------------------|--------------------|
D|------------------------------------------------|--------------------|
A|------------------------------------------------|--------------------|
E|------------------------------------------------|--------------------|





e|--------------------------------|-----------------------------------|--------|
B|--------------------------------|-----------------------------------|--------|
G|--------------------------------|-----------------------------------|--------|
D|4-------4-------4---4-------4-4-|4-------4-------4---4--------4-4-4-|4-------|
A|--------------------------------|-----------------------------------|--------|
E|--------------------------------|-----------------------------------|--------|
 |                                |                                   |        |
e|--------------------------------|-----------------------------------|--------|
B|7-------7-------7---7-------7-7-|7-------7-------7---7--------7-7-7-|7-------|
G|--------------------------------|-----------------------------------|--------|
D|--------------------------------|-----------------------------------|--------|
A|--------------------------------|-----------------------------------|--------|
E|--------------------------------|-----------------------------------|--------|






************************************

| /   slide up
| \   slide down
| h   hammer-on
| p   pull-off
| ~   vibrato
| +   harmonic
| x   Mute note
| b   Bend
| pb  Pre-bend
| br  Bend release
| pbr Pre-bend release
| brb Bend release bend
| ( ) Sustain note from
|     previous measure

************************************
Tap to rate this tab
 
# A B C D E F G H I J K L M N O P Q R S T U V W X Y Z