Minibosses - Double Dragon tab

Minibosses - Double Dragon
Brass (2005)
Tabbed by: ruker (Varuker@gmail.com)
Standard Tuning EADGBE

-------------
Key:
-------------
. Staccato
h Hammer-On
-------------


 Left Gtr
||-------------------------||
||----------------------12-||
||-------12-13-14-12-------||
||----14-------------14----||
||-------------------------||
||-------------------------||
|                           |
|Right Gtr                  |
||-------------------------||
||-------------------------||
||---------REST------------||
||-------------------------||
||-------------------------||
||-------------------------||



||-------------------------------------------------------------------------------------------------|
||*----------13-12-------------------12-13-15-13-12------------------------------------------------|
||--14-13-14-------14-13----14-13-14----------------13-14------------------------------------------|
||-----------------------14-------------------------------13-14-------------------------------13-14|
||*-------------------------------------------------------------14-15-11-12-------11-12-14-15------|
||--------------------------------------------------------------------------11-12------------------|
|                                                                                                  |
|                                                                                                  |
||-------------------------------------------------------------------------------------------------|
||*------------------------------------------------------------------------------------------------|
||-------------------------------------------------------------------------------------------------|
||-------------------------------------------------------------------------------------------------|
||*-0h-7--0h-7--0h-7--0h-7--0h-7--0h-7--0h-7--0h-7--0h-7--0h-7--0h-7--0h-7--0h-7--0h-7--0h-7--0h-7-|
||-------------------------------------------------------------------------------------------------|



|-------------------------------------------------------------------------------------------------|
|----------13-12-------------------12-13-15-13-12-------------------------------------------------|
|-14-13-14-------14-13----14-13-14----------------13-14-------------------------------------------|
|----------------------14-------------------------------13-14-------------------------------13-14-|
|-------------------------------------------------------------14-15-11-12-------11-12-14-15-------|
|-------------------------------------------------------------------------11-12-------------------|
|                                                                                                 |
|                                                                                                 |
|-------------------------------------------------------------------------------------------------|
|-------------------------------------------------------9--10-------------------------------9--10-|
|-------------------------------------------------------------8--9--------------------8--9--------|
|-------------------------------------------------------------------9--10-------9--10-------------|
|-0h-7--0h-7--0h-7--0h-7--0h-7--0h-7--0h-7--0h-7--0h-7--------------------11-12-------------------|
|-------------------------------------------------------------------------------------------------|



|-------------------------------------------------------------------------------------------------|
|----------13-12-------------------13-12----12-13-12-------12-13-12-------12-13-15-13-12----------|
|-14-------------14-------14-------------14----------14-------------14-------------------14-------|
|----15-12----------15-12----15-12----------------------14-------------14-------------------14----|
|----------------------------------------------------------------------------------------------15-|
|-------------------------------------------------------------------------------------------------|
|                                                                                                 |
|                                                                                                 |
|-------------------------------------------------------------------------------------------------|
|-------------------------------------------------------------------------8-----------------------|
|-------------------------------------------------9-----------------------------------------------|
|----------7-----7-----------------7-----7--9--10----10----7--------10-------10----7--------------|
|-8-----5-----------8--5--8-----5-----------------------------------------------------------5-----|
|-------------------------------------------------------------------------------------------------|



|-------------------------------------------------------------------------------------------------|
|----------13-12-------------------13-12----12-13-13----13-13-13-15----13-12----------------------|
|-14-------------14-------14-------------14-------------------------------------------------12-13-|
|----15-12----------15-12----15-12-------------------------------------------------------14-------|
|-------------------------------------------------------------------------------------------------|
|-------------------------------------------------------------------------------------------------|
|                                                                                                 |
|                                                                                                 |
|-------------------------------------------------------------------------------------------------|
|-------------------------------------------------------------------------------------------------|
|----------------------------------------------------------------7--------------------------------|
|----------7-----7-----------------7--------9--10-10----10-10-10-------10-9-----------------5--6--|
|-8-----5-----------8--5--8-----5--------------------------------------------------------7--------|
|-------------------------------------------------------------------------------------------------|



|-------------------------------------------------------------------------------------------------|
|-------------------------------------------------------------------------------------------------|
|-14----------------------------------------12-13-14----------------------------------------12-13-|
|----14-------------12----15-15----14----14----------14-------------12----15-15----14----14-------|
|----------12----15----15----------------------------------12----15----15-------------------------|
|-------------------------------------------------------------------------------------------------|
|                                                                                                 |
|                                                                                                 |
|-------------------------------------------------------------------------------------------------|
|-------------------------------------------------------------------------------------------------|
|-------------------------------------------------------------------------------------------------|
|-7-----------------------------------------5--6--7-----------------------------------------5--6--|
|----7--------------5-----8--8-----7-----7-----------7--------------5-----8--8-----7-----7--------|
|----------5-----8-----5-----------------------------------5-----8-----5--------------------------|



|------------------------------------------------------------------------------15-16-17-15----19--||
|---------------------12-13-15-12-------------12----------12----13----15-16-17-------------17----*||
|---------------13-14-------------14-13----13-------14--------------------------------------------||
|---------13-14-------------------------14--------------------------------------------------------||
|12-14-15----------------------------------------------------------------------------------------*||
|-------------------------------------------------------------------------------------------------||
|                                                    .     .     .                                 |
|                                                                                                  |
|-------------------------------------------------------------------------------------------------||
|------------------------------------------------------------------------------------------------*||
|--------------------REST---------------------------------------------7--8--9--------REST---------||
|---------------------------------------------------7-----9-----10--------------------------------||
|------------------------------------------------------------------------------------------------*||
|-------------------------------------------------------------------------------------------------||
                                                     .     .     .


||--------||
||--------||
||--------||
||--------||
||-0------||
||--------||
|          |
|          |
||--------||
||--------||
||--------||
||-2------||
||-0------||
||--------||
Tap to rate this tab
 
# A B C D E F G H I J K L M N O P Q R S T U V W X Y Z