Song name
# A B C D E F G H I J K L M N O P Q R S T U V W X Y Z

Minibosses - Zelda A Link To The Past - Light World tab

--------------------------------------------------------------------
Band: Minibosses
Title: Light World
Game: Zelda: A Link to the Past (SNES)
Tabbed by: Ifyhard; ifyhard2@yahoo.com
--------------------------------------------------------------------
*Any comments, suggestion, tips on how to tab properly :), or anything
really (except flames), feel free to e-mail me.

*I’ll only be covering the main guitar.

Enjoy! ^_^/no1

Standard tuning: (low to high) EADGBe

- oh, and this is one of many of my prototype tab layouts, even though
its one of the more recent ones sent = P. Please bear with it... Whoa,
even I'm not so used to it, my new ones' layout's better = ).

1st part: This starts at 00:00 and ends at 00:22
=========
|-6--------------6---------------6--------------7-----------------|
|----------6--6-----9p7-9-----------------7--7-----10p8-10--------|
|-----------------------------------------------------------------|
|-----------------------------------------------------------------|
|-----------------------------------------------------------------|
|-----------------------------------------------------------------|
*Do this twice.


2nd part: This starts at 00:27 and ends at 00:59
=========
|---------------------10-11-13------------------------------------|
|-11--------11--11-13---------------------------------------------|
|------10---------------------------------------------------------|
|-----------------------------------------------------------------|
|-----------------------------------------------------------------|
|-----------------------------------------------------------------|
*Do this twice.

|-----------------------10-11-13----13--13--14—16/18-18-----------|
|-9/11--------11--11-13-------------------------------------------|
|--------10-------------------------------------------------------|
|-----------------------------------------------------------------|
|-----------------------------------------------------------------|
|-----------------------------------------------------------------|

|-18-18-16-14-16--14-13---13/11-11h13-11--11-13-14---13-11/9-9--9-|
|-----------------------------------------------------------------|
|-----------------------------------------------------------------|
|-----------------------------------------------------------------|
|-----------------------------------------------------------------|
|-----------------------------------------------------------------|

|11-13---11-9/8-8—8-10-12~-12/15-15-15-13-------------------------|
|-----------------------------------------------------------------|
|-----------------------------------------10-10-10--10-10-10------|
|-----------------------------------------------------------------|
|-----------------------------------------------------------------|
|-----------------------------------------------------------------|

|-----------------------------------------------------------------|
|-----------------------------------------------------------------|
|-10-10-10-10-----------------------------------------------------|
|-----------------------------------------------------------------|
|-----------------------------------------------------------------|
|-----------------------------------------------------------------|

4th part: This starts at 01:00 and ends at 01:31
=========
*v= vibrato
|-----------------------10-11-13----13--13--14—16/18-18-----------|
|-9/11--------11--11-13-------------------------------------------|
|--------10-------------------------------------------------------|
|-----------------------------------------------------------------|
|-----------------------------------------------------------------|
|-----------------------------------------------------------------|

|-21--20—17v--------14---18--17--13---13--14---16/18--17--14------|
|--------------12/^-----------------------------------------------|
|-----------------------------------------------------------------|
|-----------------------------------------------------------------|
|-----------------------------------------------------------------|
|-----------------------------------------------------------------|

|----------12/14--13-----------8--8-10-12—12/15-15-15—13----------|
|-15--16---10/12--11--14---11-------------------------------------|
|---------------------13------------------------------------------|
|-----------------------------------------------------------------|
|-----------------------------------------------------------------|
|-----------------------------------------------------------------|

|-----------------------------------------------------------------|
|-----------------------------------------------------------------|
|-10-10-10--10-10-10--10-10-10-10---------------------------------|
|-----------------------------------------------------------------|
|-----------------------------------------------------------------|
|-----------------------------------------------------------------|

Final part: This starts at 01:31 and ends at 01:58
=========
|-----------------------10-11-13----13--13--14—16/18-18-----------|
|-9/11--------11--11-13-------------------------------------------|
|--------10-------------------------------------------------------|
|-----------------------------------------------------------------|
|-----------------------------------------------------------------|
|-----------------------------------------------------------------|

|-18-18-16-14-16--14-13---13/11-11h13-11--11-13-14---13-11/9-9--9-|
|-----------------------------------------------------------------|
|-----------------------------------------------------------------|
|-----------------------------------------------------------------|
|-----------------------------------------------------------------|
|-----------------------------------------------------------------|

|11-13---11-9/8-8-8—10-12~-12/15-15-15-13-------------------------|
|-----------------------------------------------------------------|
|---------------------------------------10-10-10--10-10-10--------|
|-----------------------------------------------------------------|
|-----------------------------------------------------------------|
|-----------------------------------------------------------------|

|-----------------------------------------------------------------|
|--------------11~~~----------------------------------------------|
|-10-10-10-10-----------------------------------------------------|
|-----------------------------------------------------------------|
|-----------------------------------------------------------------|
|-----------------------------------------------------------------|

That’s it! ^_^

Tap to rate this tab
 
# A B C D E F G H I J K L M N O P Q R S T U V W X Y Z