Song name
# A B C D E F G H I J K L M N O P Q R S T U V W X Y Z

Minibosses - Ninja Gaiden tab

Help us improve GuitareTab! Take a short survey!
-------------------------------------------------------------------------------
			     Ninja Gaiden - Minibosses
-------------------------------------------------------------------------------


Tabbed by That Ravioli kid from Myspace

Contact


I listed this as an intro but it's really more like half the song.


/ = slide up
^ = bend
~ = vibrato/tremolo
h = hammer-on
p = pull-off
                                      
E-----7-6-------------------9-77-66--------6----------------|     
B---------9~~---7---7-9~--9----------99--7----9--7--------7-| <--  
G---8---------8--8---------------------------------8~~-8----|    | 
D-----------------------------------------------------------|    |
A-----------------------------------------------------------|    |
E-----------------------------------------------------------|    |
                                                                2x
E-------------------------6h7p6----------------6------------|    | 
B-----------------------9-------77---7-----7-----9~~--------|    | 
G--9-8-66~~-6-9-8-----8------------8--8--8---8--------------|    |
D----------------9~~9---------------------------------------|    | 
A-----------------------------------------------------------| <-- 
E-----------------------------------------------------------|   

E-----------------------------------------------------------|   
B---9--11-12-14-11-11----77-9-7-9/11-9~~---9-11-9-8~~-8-9-11| <-- 
G-----------------------------------------------------------|    | 
D-----------------------------------------------------------|    | 
A-----------------------------------------------------------|    | 
E-----------------------------------------------------------|    | 
                                                                4x
E--------------------------------(play this after the 3x)---|    | 
B-------12-11-7-9~~---------------12(10x)-14(10x)-16(10x)---|    |
G-----------------------------------------------------------|    | 
D-----------------------------------------------------------|    | 
A-----------------------------------------------------------| <--  
E-----------------------------------------------------------|   

(Double picked)
E-----------------------------------------------------------|   
B-----------------------------------------------------------|   
G--11-11--10-10--11-11--10-10--11-11--10-10--11-11--10-10---|  2x     
D-----------------------------------------------------------|     
A-----------------------------------------------------------|     
E-----------------------------------------------------------|     
                                                                 
E-----------------------------------------------------------|     
B-----------------------------------------------------------|    
G--10-10--9-9--10-10--9-9--10-10--9-9--10-10--9-9-----------|  2x    
D-----------------------------------------------------------|     
A-----------------------------------------------------------|     
E-----------------------------------------------------------|   

E-----------------------------------------------14-15-17--18|     
B------------------------89-10--11-12--14-15-17-------------|     
G----------79-10--11-12-------------------------------------|     
D--9-10-----------------------------------------------------|     
A-----------------------------------------------------------|     
E-----------------------------------------------------------|   

After this little breakdown, the guitarist 
goes from double-picking to single picking.

E--11-10-11-10-11-10-11-10--10-9-10-9-10-9-10-9-------------|     
B-----------------------------------------------------------|     
G-----------------------------------------------------------|  2x     
D-----------------------------------------------------------|     
A-----------------------------------------------------------|     
E-----------------------------------------------------------|  

E--13-12-13-12-13-12-13-12--12-11-12-11-12-11-12-11---------|     
B-----------------------------------------------------------|     
G-----------------------------------------------------------|  2x     
D-----------------------------------------------------------|     
A-----------------------------------------------------------|     
E-----------------------------------------------------------|

E--14-13-14-13-14-13-14-13--15-14-15-14-15-14-15-14---------|     
B-----------------------------------------------------------|     
G-----------------------------------------------------------|     
D-----------------------------------------------------------|     
A-----------------------------------------------------------|     
E-----------------------------------------------------------| 


E--16-15-16-15-16-15-16-15--17-16-17-16-17-16-17-19-19^^^^--|     
B-----------------------------------------------------------|     
G-----------------------------------------------------------|     
D-----------------------------------------------------------|     
A-----------------------------------------------------------|     
E-----------------------------------------------------------| 


Thats it so far. I know I fucked up a few parts, but it sounds about 95% accurate to me. 
Related for Ninja Gaiden tab