Song name
# A B C D E F G H I J K L M N O P Q R S T U V W X Y Z

Minibosses - Big Blue tab

-------------------------------------------------------------------------------
			     Big Blue - The Minibosses
-------------------------------------------------------------------------------
Tabbed by: A. Nonymous
Email: tdsr93@hotmail.com
Tuning: Standard (eBGDAE)

[READ THIS FIRST]
Note: There are a couple of versions from Big Blue... You got the one from the Super 
Bros Melee game, one performed on a piano... and some more. This is the one which starts 
a lot of drums. Make sure you've got the correct song, from The Minibosses (yeah that's their name)
IF you see this song unfinished, I'll update it later. I WON'T quit before finishing the 
thing
OK! Here we go!

[INTRO]
e|---------------------------------------------------------------------------|
B|---------------------------------------------------------------------------|
G|---------------------------------------------------------------------------|
D|----9------------9----7------------------7------------7----9---------------| [ X 5 ]
A|----9------------9----7------------------7------------7----9---------------|
E|----7------------7----5------------------5------------5----7---------------|

e|---------------------------------------------------------------------------|
B|---------------------------------------------------------------------------|
G|---------------------------------------------------------------------------|
D|----9------------9----7------------------7------------7----4---------------|
A|----9------------9----7------------------7------------7----4---------------|
E|----7------------7----5------------------5------------5----2---------------|

[SOLO 1]
e|-----------------------------------------------------------------------|
B|--7--5-----------------------------------------------------------------|
G|-------7--6-7-------6--------------------------------------------------|
D|-----------------------------------------------------------------------|
A|-----------------------------------------------------------------------|
E|-----------------------------------------------------------------------|
Tap to rate this tab
 
# A B C D E F G H I J K L M N O P Q R S T U V W X Y Z