Song name
# A B C D E F G H I J K L M N O P Q R S T U V W X Y Z

Ministerio Sai Da Tenda - Quem Planta Fe chords

Highlighted       Show chord diagrams
Quem Planta Fé
Ministério Sai da Tenda

Tom: F#         

Intro: F  Bb/D  Bbm/Db  G  C  F  Bb/D  Gm  F/A  Bb/C

Solo Intro:
E|-----------------------------------------------|
B|---9/11---10--8--10----------------------------|
G|-----------------------------------------------| (3x)
D|-----------------------------------------------|
A|-----------------------------------------------|
E|-----------------------------------------------|

E|-----------------------------------------------|
B|---9/11---10--8-----------10----11-----10/13---|
G|-------------------10/12-----------12----------|
D|-----------------------------------------------|
A|-----------------------------------------------|
E|-----------------------------------------------|

E|-----------------------------------------------|
B|---9/11---10--8--10----------------------------|
G|-----------------------------------------------| (2x)
D|-----------------------------------------------|
A|-----------------------------------------------|
E|-----------------------------------------------|

E|-----------------------------------------------|
B|---9/11---10--8--------------------------------|
G|--------------------10/12----------------------|
D|-----------------------------------------------|
A|-----------------------------------------------|
E|-----------------------------------------------|

F
Há situações
C/E
Difíceis de enfrentar
Dm              C9         Bb9
Momentos que pensamos em parar
    F
Projetos, sonhos, planos,
   C/E
Tentamos conquistar
Dm           C9
Mas o tempo passa
        Bb9
E a aflição vem nos tocar

Gm7             Bb9                C4            C
Deus nos fez promessas: Tudo é possível ao que crê
      Gm7         Bb9
Tenha fé e não desista
     C4              C   Bb/D   C/E
O milagre vai acontecer.

             F  F/A
Quem planta fé
Bb9         C4 C
Colhe milagres
       Gm         Dm     C9
E vê o impossível acontecer
         Bb/D  C/E      F4 F
Se você crer, você vai ver
    Gm7      Bb/C        F
O milagre de Deus acontecer.

Interlúdio: Bb9  Dm  Bb9  F/A

Gm7             Bb9                C4            C
Deus nos fez promessas: Tudo é possível ao que crê ...

Gm7             Bb9                C4            C
Deus nos fez promessas: Tudo é possível ao que crê
      Gm7         Bb9
Tenha fé e não desista
     C4              C   Bb/D   C/E
O milagre vai acontecer.

             F  F/A
Quem planta fé
Bb9         C4 C
Colhe milagres
       Gm         Dm     C9
E vê o impossível acontecer
         Bb/D  C/E      F4 F
Se você crer, você vai ver
    Gm7      Bb/C        F
O milagre de Deus acontecer.

             F#  F#/Bb
Quem planta fé
B9         C#4 C#
Colhe milagres
       Abm         Ebm     C#9
E vê o impossível acontecer
         B/Eb  C#/F      F#4 F#
Se você crer, você vai ver
    Abm7      B/C#        F#
O milagre de Deus acontecer.
Tap to rate this tab
# A B C D E F G H I J K L M N O P Q R S T U V W X Y Z