Song name
# A B C D E F G H I J K L M N O P Q R S T U V W X Y Z

Ministri - Bevo tab

Intro
------------------------------------------------------------|
------------------------------------------------------------|
------------------------------------------------------------|
----------------7-------------------------------------------|
----------5-----7-------------------------------------------|
--777777--------5-------------------------------------------|

riff
------------------------------------------------------------|
------------------------------------------------------------|
------------------------------------------------------------|
------------------------------------------------------------|
--7-5------7-5-------7-5---7--7--5-5------------------------|
------5--8-----5--8------8-----------8----------------------|

strofa (intro)

pre-rit
--------|---------------------------------------------------|
--------|---------------------------------------------------|
-----7--|---------12----------11----------------------------|
-----7--|------12----12----12----12-------------------------|
-----5--|---10-----------9----------------------------------|
--------|---------------------------------------------------|

rit
------------------------------------------------------------|
------------------------------------------------------------|
------------------------------------------------------------|
---5--4-----------------------------------------------------|
---5--5-----------------------------------------------------|
---3--2-----------------------------------------------------|
Tap to rate this tab
 
# A B C D E F G H I J K L M N O P Q R S T U V W X Y Z