Ministri - Mangio La Terra tab

INTRO- INIZIO

e|---------------------------------------------------------|
b|---------------------------------------------------------|
g|-----9-7---------9-------7------7-9----------------------|          X3
d|-----------10-7------10---10-----------------------------|
a|---------------------------------------------------------|
e|---------------------------------------------------------|

chitarra 2

e|---------------------------------------------------------|
b|---------------------------------------------------------|
g|-----9-7---------9-------7------7-9----------------------| 
d|-----------10-7------10---10-----------------------------|
a|---------------------------------------------------------|
e|---------------------------------------------------------|


chitarra 1

e|---------------------------------------------------------|
b|---------------------------------------------------------|
g|---------------------------------------------------------|        X2
d|---------------------------------------------------------|
a|--/7-5---------------------/7-5--------------------------|
e|------6-5-5-5-5-5-5-5-5--------6-5-5-5-5-5-5-5-5---------|



STROFA


e|----------------------------------------------------------|
b|----------------------------------------------------------|
g|----------------------------------------------------------|        
d|----------------------------------------------------------|
a|----------------------------------------------------------|
e|---555555555/888888888\0000000/1010101010101010-----------|

RITORNELLO

e|----------------------------------------------------------|
b|----------------------------------------------------------|
g|----------------------------------------------------------|        
d|----------------------------------------------------------|
a|---777xxx--10-10-10xxx----222xxx--12-12-12xxx-------------|
e|---555xxx--8--8---8-xxx---000xxx--10-10-10xxx-------------|

RITORNELLO

e|----------------------------------------------------------|
b|----------------------------------------------------------|
g|----------------------------------------------------------|        
d|----------------------------------------------------------|
a|---777xxx--10-10-10xxx--222xxx----3333333-----------------|
e|---555xxx--8--8---8-xxx---000xxx--1111111-----------------|

RITORNELLO PARTE 2 (QUANDO DICE "IO MANGIO LA TERRA!")

e|----------------------------------------------------------|
b|----------------------------------------------------------|
g|----------------------------------------------------------|        
d|---55555--------------------------------------------------|
a|---77777------333333------7777----5555--------------------|
e|------------------111111------5555----3333----------------|


STROFA 2 PARTE 1


e|-----------------------------------------------------------|
b|-----------------------------------------------------------|
g|-----------------------------------------------------------|        
d|-----------------------------------------------------------|
a|-----------------------------------------------------------|
e|-5-5-5-5-5-5-5-5-5-5-5-5-5-5-5-5-5-5-5-5-5-5-5-5-5-5-------|

STROFA 2PARTE 2

e|----------------------------------------------------------|
b|----------------------------------------------------------|
g|----------------------------------------------------------|        
d|----------------------------------------------------------|
a|----------------------------------------------------------|
e|---555555555/888888888\0000000/1010101010101010-----------|



RITORNELLO



e|----------------------------------------------------------|
b|----------------------------------------------------------|
g|----------------------------------------------------------|        
d|----------------------------------------------------------|
a|---777xxx--10-10-10xxx----222xxx--12-12-12xxx-------------|
e|---555xxx--8--8---8-xxx---000xxx--10-10-10xxx-------------|



RITORNELLO


e|----------------------------------------------------------|
b|----------------------------------------------------------|
g|----------------------------------------------------------|        
d|----------------------------------------------------------|
a|---777xxx--10-10-10xxx--222xxx----3333333-----------------|
e|---555xxx--8--8---8-xxx---000xxx--1111111-----------------|


RITORNELLO PARTE 2 (DA CONTINUARE DURANTE L'ASSOLO)

e|----------------------------------------------------------|
b|----------------------------------------------------------|
g|----------------------------------------------------------|        
d|---55555--------------------------------------------------|
a|---77777------333333------7777----5555--------------------|
e|------------------111111------5555----3333----------------|


ASSOLO


e|-----------------------------------------------------------|
b|-----------------------------------------------------------|
g|--------7----7-9-7-5----5---5-7-5-4------------------------|           X2
d|-------------------------7---------------------------------| 
a|-----------------------------------------------------------|
e|-----------------------------------------------------------|


RITORNELLO FINALE


e|-----------------------------------------------------------|
b|-----------------------------------------------------------|
g|-----------------------------------------------------------|        
d|-----------------------------------------------------------|
a|---77777--10-10-10--22222----1-1-1-1-1-1-1-----------------|
e|---55555--8-8-8-8---00000----3-3-3-3-3-3-3-----------------|


FINE chitarra 1

e|---------------------------------------------------------|
b|---------------------------------------------------------|
g|---------------------------------------------------------|        
d|---------------------------------------------------------|
a|--/7-5---------------------/7-5--------------------------|
e|------6-5-5-5-5-5-5-5-5--------6-5-5-5-5-5-5-5-5---------|


CHITARRA 2


e|---------------------------------------------------------|
b|---------------------------------------------------------|
g|-----9-7---------9-------7------7-9----------------------| 
d|-----------10-7------10---10-----------------------------|
a|---------------------------------------------------------|
e|---------------------------------------------------------|

e|---------------------------------------------------------|
b|---------------------------------------------------------|
g|-----9-7---------9-------7------7-9----------------------| 
d|-----------10-7------10---10-----------------------------|
a|---------------------------------------------------------|
e|---------------------------------------------------------|

Tap to rate this tab
 
# A B C D E F G H I J K L M N O P Q R S T U V W X Y Z