Song name
# A B C D E F G H I J K L M N O P Q R S T U V W X Y Z

Ministri - La Casa Brucia tab

La casa brucia - Riff 
Tablatura datami da Federico Dragogna (tab by Federico Dragogna)

e---------------------------------|
B---------------------------------|
G---------------------------------|
D---------------------------------| x3
A--------2---------------2---3---3|
E0-3-2-0---0-2-3-0-3-2-0---0---0--|


e-------------------------------|
B-------------------------------|
G-------------------------------|
D-------------------------------| 
A--------2---------------2------|
E0-3-2-0---0-2-3-0-3-2-0---0-2-3|

e---------|----------3--------------------|
B---------|----------x--------------------|
G---------|----------x-------7-----6-----5|
D2---2----|2---2-------------x-----x-----x| 
A2---2----|2---2-------------5-----4-----3|
E0-3-0-3-0|0-3-0-3-0---0-3-0---0-3---0-3--|

Ps: suonata con Gibson sg 61 Reissue + Orange ad30 + Mesa Rectoverb + Fender Vibroverb
Tap to rate this tab
 
# A B C D E F G H I J K L M N O P Q R S T U V W X Y Z