Song name
# A B C D E F G H I J K L M N O P Q R S T U V W X Y Z

Ministri - La Petroliera tab

|----------------------------|
|----------------------------|
|----------------------------|
|------------------4-2-------|  (x2)
|-2-4-2-5-2--2-4-2-----5-4---|
|----------------------------|

|---------------------------------------------|
|---------------------------------------------|
|------------------4-2------------------------|
|-2-4-2-5-2--2-4-2-----5-4--/7--4--/16--4-----|
|-----------------------------------------2---|
|---------------------------------------------|

|----------------------------|
|----------------------------|
|----------------------------|
|------------------4-2-------|  (x2)
|-2-4-2-5-2--2-4-2-----5-4---|
|----------------------------|

|---------------------------------------------|
|---------------------------------------------|
|------------------4-2------------------------|
|-2-4-2-5-2--2-4-2-----5-4--/7--4--/16--4-----|
|-----------------------------------------2---|
|---------------------------------------------|

|----------------------------|
|----------------------------|
|----------------------------|
|------------------4-2-------|  (x2)
|-2-4-2-5-2--2-4-2-----5-4---|
|----------------------------|

|----------------------------|
|----------------------------|
|------------------4-2-------|
|-2-4-2-5-2--2-4-2-----5-4---|
|----------------------------|
|----------------------------|
Tap to rate this tab
 
# A B C D E F G H I J K L M N O P Q R S T U V W X Y Z