Song name
# A B C D E F G H I J K L M N O P Q R S T U V W X Y Z

Ministri - Comunque tab

COMUNQUE - I Ministri

Intro x2

e|-----|-------------------------------2~---|
B|--x--|-2-2-2-2-2-2-2-2-5-5-5-5-5-5-5------|
G|--x--|-2-2-2-2-2-2-2-2-2-2-2-2-2-2-2------|
D|--x--|-2-2-2-2-2-2-2-2-2-2-2-2-2-2-2------|  x2
A|--x--|------------------------------------|
E|-----|------------------------------------|


e|------------------2-2-2-2-2-2-2-2-----------------------------------|
B|------------------3-3-3-3-3-3-3-3------------------3-3-3-3-3-3-3-3--|
G|------------------2-2-2-2-2-2-2-2--1-1-1-1-1-1-1-1-1-1-1-1-1-1-1-1--|
D|--4-4-4-4-4-4-4-4------------------2-2-2-2-2-2-2-2-2-2-2-2-2-2-2-2--|
A|--2-2-2-2-2-2-2-2------------------2-2-2-2-2-2-2-2-2-2-2-2-2-2-2-2--|
E|--2-2-2-2-2-2-2-2---------------------------------------------------|


verse

e|--10~----------------10-10-10------------------|
B|------10~---------------------12-12-12---------|
G|----------11---------------------------11~-----|
D|-----------------------------------------------|
A|-----------------------------------------------|
E|-----------------------------------------------|


e|--------------------------------------------------------------------|
B|--------------------------------------------------------------------|
G|--------------------------------------------------------------------|
D|--------------------------------------------------------------------|
A|--4-4-4-4-4-4-4-4-4-4-4-4-4-4-4-4--2-2-2-2-2-2-2-2-2-2-2-2-2-2-2-2--|
E|--2-2-2-2-2-2-2-2-2-2-2-2-2-2-2-2--0-0-0-0-0-0-0-0-0-0-0-0-0-0-0-0--|
    
    x x x x x x x x x x x x x x x x  x x x x x x x x x x x x x x x x   (p.m.)


e|--------------------------------------------------------------------|
B|--------------------------------------------------------------------|
G|--------------------------------------------------------------------|
D|--6-6-6-6-6-6-6-6-6-6-6-6-6-6-6-6--7-7-7-7-7-7-7-7-7-7-7-7-7-7-7-7--|
A|--4-4-4-4-4-4-4-4-4-4-4-4-4-4-4-4--5-5-5-5-5-5-5-5-5-5-5-5-5-5-5-5--|
E|--------------------------------------------------------------------|

    x x x x x x x x x x x x x x x x  x x x x x x x x x x x x x x x x        X2


e|--------------------------------------------------------------------|
B|--------------------------------------------------------------------|
G|--------------------------------------------------------------------|
D|--------------------------------------------------------------------|
A|--7-7-7-7-7-7-7-7-7-7-7-7-7-7-7-7--2-2-2-2-2-2-2-2-2-2-2-2-2-2-2-2--|
E|--5-5-5-5-5-5-5-5-5-5-5-5-5-5-5-5--0-0-0-0-0-0-0-0-0-0-0-0-0-0-0-0--|

    x x x x x x x x x x x x x x x x  x x x x x x x x x x x x x x x x

chitarra 2

e|------------------------------------------------|
B|--7-7-7------------------7-7-7------------------|
G|--------6-6-6------------------7-7-7------------|
D|--------------7~--4-7-4--------------7~--4-7-4--|
A|------------------------------------------------|
E|------------------------------------------------|



e|-----------------------------------------|
B|--5-5-5------------------5-5-5-----------|
G|--------6-6-6------------------6-6-6-----|
D|--------------7~----7----------------6~--|
A|------------------7---7------------------|
E|-----------------------------------------|


e|-------------------------------------------------|
B|--5-5-5------------------7-7-7-------------------|
G|--------6-6-6------------------7-7-7-------------|
D|--------------6~----6----------------7~--4-7-4---|
A|------------------7---7--------------------------|
E|-------------------------------------------------|

                           
e|----------------------|
B|--5-5-5---------------|
G|--------6-6-6---------|
D|--------------7~----7-|
A|------------------7---|
E|----------------------|


prima del ritornello


chitarra 1

e|------------------------------------|
B|------------------------------------|
G|------------------------------------|
D|------------------------------------|
A|--2-2-2-2-2-2-2-2--6-6-6-6-6-6-6-6--|
E|--0-0-0-0-0-0-0-0--4-4-4-4-4-4-4-4--|


chitarra 2

e|--------------------------------------------|
B|--------------------------------------------|
G|--9-9-9-9-9-9-9-9--13-13-13-13-13-13-13-13--|
D|--9-9-9-9-9-9-9-9--13-13-13-13-13-13-13-13--|
A|--7-7-7-7-7-7-7-7--11-11-11-11-11-11-11-11--|
E|--------------------------------------------|





rit

chitarra 1

e|-----------------------------------|
B|-----------------------------------|
G|-----------------------------------|
D|--7-7-7-7-7-7-7-7-7-7-7-7-7-7-7-7--|  x2
A|--7-7-7-7-7-7-7-7-7-7-7-7-7-7-7-7--|
E|--5-5-5-5-5-5-5-5-5-5-5-5-5-5-5-5--|



e|--------------------------------------------------------------------|
B|--------------------------------------------------------------------|
G|-----------------------------------7-7-7-7-7-7-7-7-7-7-7-7-7-7-7-7--|
D|--4-4-4-4-4-4-4-4-4-4-4-4-4-4-4-4--7-7-7-7-7-7-7-7-7-7-7-7-7-7-7-7--|
A|--4-4-4-4-4-4-4-4-4-4-4-4-4-4-4-4--5-5-5-5-5-5-5-5-5-5-5-5-5-5-5-5--|
E|--2-2-2-2-2-2-2-2-2-2-2-2-2-2-2-2-----------------------------------|


e|-----------------------------------|
B|-----------------------------------|
G|-----------------------------------|
D|--7-7-7-7-7-7-7-7-7-7-7-7-7-7-7-7--|  x2
A|--7-7-7-7-7-7-7-7-7-7-7-7-7-7-7-7--|
E|--5-5-5-5-5-5-5-5-5-5-5-5-5-5-5-5--|



e|-----------------------------------------------------------------------------|
B|-----------------------------------------------------------------------------|
G|-----------------------------------9-9-9-9-9-9-9-9--13-13-13-13-13-13-13-13--|
D|--4-4-4-4-4-4-4-4-4-4-4-4-4-4-4-4--9-9-9-9-9-9-9-9--13-13-13-13-13-13-13-13--|
A|--4-4-4-4-4-4-4-4-4-4-4-4-4-4-4-4--7-7-7-7-7-7-7-7--11-11-11-11-11-11-11-11--|
E|--2-2-2-2-2-2-2-2-2-2-2-2-2-2-2-2--------------------------------------------|

chitarra 2

e|------------------------------------------------------------|
B|--10------10------10-----10-----10-----10-----10-----10-----|
G|------9-------9-------9------9------9------9------9------9--|
D|------------------------------------------------------------|
A|------------------------------------------------------------|
E|------------------------------------------------------------|



e|------------------------------------------------------|
B|--7-----7-----7-----7-----10-----10-----10-----10-----|
G|-----5-----5-----5-----5------9------9------9------9--|
D|------------------------------------------------------|
A|------------------------------------------------------|
E|------------------------------------------------------|



e|------------------------------------------------------------|
B|--10------10------10-----10-----10-----10-----10-----10-----|
G|------9-------9-------9------9------9------9------9------9--|
D|------------------------------------------------------------|
A|------------------------------------------------------------|
E|------------------------------------------------------------|



e|--------------------------------------------------------------------|
B|--7-----7-----7-----7-----9-9-9-9-9-9-9-9--13-13-13-13-13-13-13-13--|
G|-----5-----5-----5-----5--9-9-9-9-9-9-9-9--13-13-13-13-13-13-13-13--|
D|--------------------------------------------------------------------|
A|--------------------------------------------------------------------|
E|--------------------------------------------------------------------|

intro x1

verse

prechorus

rit

finale x5

chitarra 1

e|---------------------------------------------------|
B|---------------------------------------------------|
G|--12-12-12-12-12-12-12-12-12-12-12-12-12-12-12-12--|
D|--12-12-12-12-12-12-12-12-12-12-12-12-12-12-12-12--| x2
A|--10-10-10-10-10-10-10-10-10-10-10-10-10-10-10-10--|
E|---------------------------------------------------|




e|----------------------------------------------------|
B|----------------------------------------------------|
G|--14-14-14-14-14-14-14-14---------------------------|
D|--14-14-14-14-14-14-14-14--11-11-11-11-11-11-11-11--|
A|--12-12-12-12-12-12-12-12--9--9--9--9--9--9--9--9---|
E|----------------------------------------------------|


chitarra 2


e|----------------------------------------------------------------|
B|----------------7----------------------7------------------------| 
G|-------6--7--9-----9--7-6-----6--7--9-----9--7-6--9~--6~---7-6--| x5
D|--9~----------------------9~------------------------------------|
A|----------------------------------------------------------------|
E|----------------------------------------------------------------|


finisce in RE


e|-----|
B|-----|
G|--7~-|
D|--7~-|
A|--5~-|
E|-----|

Spero si capisca,  la prima tablatura che scrivo.

Dovrebbe essere giusta, almeno al 97%

Tanto suona bene comunque.

Tap to rate this tab
# A B C D E F G H I J K L M N O P Q R S T U V W X Y Z