Song name
# A B C D E F G H I J K L M N O P Q R S T U V W X Y Z

Ministry Of Love - Slow Your Role tab

drop d tune

intro
e--------------------------------------------|  x4
b--------------------------------------------|
g---------------------------------------3333-|
d-----------------5-5-8888-6-6-8888-1-1------|
a-0h8h10-0h8h10p0-5-5------6-6------1-1------|
d-0h8h10-0h8h10p0-5-5------6-6------1-1------|

verse
e---------------------------------|             x4
b---------------------------------|
g-7-7-7-7-101010103-3-3-3-5-5-5-5-|
d-5-5-5-5-8-8-8-8-1-1-1-1-3-3-3-3-|
a-5-5-5-5-8-8-8-8-1-1-1-1-3-3-3-3-|
d-5-5-5-5-8-8-8-8-1-1-1-1-3-3-3-3-|

pre chorus
e-------------------------------|               x4
b-------------------------------|
g-------------------------------|
d-1-1-1-1-------5-5-5-5---------|
a-1-1-1-1---1\3~5-5-5-5--8~7~8~-|
d-1-1-1-1---1\3~5-5-5-5--8~7~8~-|

chorus
e---------------------------------|             x4
b---------------------------------|
g-7-7-7-7-5-5-5-5-2-2-2-2-3-3-3-3-|
d-5-5-5-5-3-3-3-3-0-0-0-0-1-1-1-1-|
a-5-5-5-5-3-3-3-3-0-0-0-0-1-1-1-1-|
d-5-5-5-5-3-3-3-3-0-0-0-0-1-1-1-1-|

intro repeat              x4
verse repeat              x4
pre chorus repeat         x4
chorus repeat             x4

bridge
e-------------------------|                     x4
b-------------------------|
g-------------------------|
d-1~-1~---3~-3~--5~553~33-|
a-1~-1~---3~-3~--5~553~33-|
d-1~-1~---3~-3~--5~553~33-|

outro
e---------------------------------|            x4
b---------------------------------|
g---------------------------------|
d-1-1-1-1-1-1-1-1-3-3-3-3-5-5-3-3-|
a-1-1-1-1-1-1-1-1-3-3-3-3-5-5-3-3-|
d-1-1-1-1-1-1-1-1-3-3-3-3-5-5-3-3-|

www.ministryoflovemusic.com
Tap to rate this tab
# A B C D E F G H I J K L M N O P Q R S T U V W X Y Z