Song name
# A B C D E F G H I J K L M N O P Q R S T U V W X Y Z

Ministry Of Love - Third Times A Charm tab

guitar intro
e-5----------0--------------------------0-0-0-|
b-5-55-5-5-5-5-55-5-5-5-3-33-3-3-3-1-11-5-5-5-|
g-5-55-5-5-5-5-55-5-5-5-0-00-0-0-0-0-00-5-5-5-|
d-7-77-7-7-7-3-33-3-3-3-0-00-0-0-0-3-33-3-3-3-|
a---------------------------------------------|
d---------------------------------------------|


music whole band intro
e---------------------------------------------|
b-5-55-5-5-5-5-55-5-5-5------------5-55-5-5-5-|
g-5-55-5-5-5-5-55-5-5-5-7-77-7-7-7-5-55-5-5-5-|
d-7-77-7-7-7-3-33-3-3-3-5-55-5-5-5-3-33-3-3-3-|
a-0-00-0-0-0------------0-00-0-0-0------------|
d---------------------------------------------|


verse                                    x2                                 pre-chorus
e-----0-------0------10------0---|--------------|
b---1-------0----------------5---|--55--55--55--|
g------------------7-------5-----|--22--22--22--|
d---------3------5-------3-------|--22--22--22--|
a-0------------------------------|--00--00--00--|
d--------------------------------|--------------|

chorus
e------------------------------------------------------------------|
b------------------------------------------------------------------|
g-2-2-2-2---------7-7-7-7-------77-4-4-4-4---------7-7-7-7-7-7-7-7-|
d-2-2-2-2-5-5-5-5-7-7-7-7-5-5-5-xx-2-2-2-2-5-5-5-5-7-7-7-7-x-x-x-x-|
a-0-0-0-0-3-3-3-3-5-5-5-5-3-3-3-55-0-0-0-0-3-3-3-3-5-5-5-5-5-5-5-5-|
d---------3-3-3-3---------3-3-3------------3-3-3-3-----------------|

bridge
e-----------------0-------0-------0---000--------|
b-------------5-------5-------5-------555-(7*)---|
g-9----5----7---7---7---5---3---3---3------------|
d-7----3-----------------------------------------|
a-7----3-----------------------------------------|
d-7----3----7---------------3--------------------|


rock part
e---------------------------------------------------------------------------|
b---------------------------------------------------------------------------|
g----------9--9--9-----------12--12--12-----------7--7--7-----------9-9-5-5-|
d-77777777-x--x--x--77777777-x---x---x---33333333-x--x--x--33333333-x-x-x-x-|
a-77777777-7x-7x-7x-77777777-10x-10x-10x-33333333-5x-5x-5x-33333333-7-7-3-3-|
d-77777777----------77777777-------------33333333----------33333333---------|

rock part 2
e---------------------------------------------------------|
b---------------------------------------------------------|
g-9-99999-99--9-99999-12-12--5-55555-77--5-55555-999-555--|
d-x-xxxxx-xx--x-xxxxx-x--x---x-xxxxx-xx--x-xxxxx-xxx-xxx--|
a-7-77777-77--7-77777-10-10--3-33333-55--3-33333-777-333--|
d---------------------------------------------------------|


guitar solo
e------------------------------------------------------------|
b---------------------0h10h13h15-13---------17-15------------|
g---------------0h9h12-------------14-17-14-------17-0h17p0--|
d--------0h10h12---------------------------------------------|
a-0h10h12----------------------------------------------------|
d------------------------------------------------------------|

guitar solo part 2
e--------------------------1717--------------------------------------------|
b-20-17-17h18p17---------------1717----20201717----18181717----------------|
g---------------17--0h17p0---------1717--------1717--------1717-------17---|
d--------------------------------------------------------------0h17h19-----|
a-----------------------------------------------------------------------19-|
d--------------------------------------------------------------------------|


verse 3
e----------------------------------------------------------------------|
b------5p0---5p0----5p0---5p0--------12p0----12p0--------12p0----12p0--|
g---5p0---5p0----5p0---5p0-------12p0----12p0--------12p0----12p0------|
d-77-----------33------------1414----------------1010------------------|
a----------------------------------------------------------------------|
d----------------------------------------------------------------------|
Tap to rate this tab
 
# A B C D E F G H I J K L M N O P Q R S T U V W X Y Z