Song name
# A B C D E F G H I J K L M N O P Q R S T U V W X Y Z

Ministry Of Love - A Promise For Forever tab

            intro................
 
   D   Gm  B   A   G
e---------------------||
b--7---7--------------||
g--7---7---11--9---7--||
d--7---7---9---7---5--||
a--5---5---9---7---5--||
d--0---5---9---7---5--||


  D                       Gm                          B
today im here to tell the story of a boy who swore he knew me

A             G
such a clever guy oh ooh whoa

D                         Gm                                D
but he was wrong on all acounts and now im here to break it down

A            G
so here we go once upon a time



         music break.................

chords - B A G A
e-------------------------------|
b-------------------------------|
g-------------------------------|
d----4-0----2-0----4-0----------|
a--2------0------5--------------|
d----------------5--------------|


           verse 1.............

   Bs  As  Gs  A   B
e---------------------||
b--0------------------||
g--4---4---7---9---11-||
d--4---2---5---7---9--||
a--2---0---0---7---9--||
d----------5---7---9--||


Bs                          As               Gs
so you said that this would promise you sleep
                      A                  B
but your insomnia's a secret you cant keep
                         A               Gs
i know you spend as many nights awake as i do
          Bs       As                      Gs              A
oh can you show me how you became a lonley king without a crown
     B                            A
when i am just the writer you got your whole entire chior
           Gs
it took an earthquake to strightin me out

--------musical break again---------

             chorus...............


   D   A   B   G
e-----------------||
b-----------------||
g--7---2---4---7--||
d--7---2---4---5--||
a--5---0---2---5--||
d--------------5--||

D               A               B
but it meant so much to my heart
                       G
when i heard you start singing in the dark
D                  A                B
we could tear this whole place apart
               G
and play the song back from the start


--------music coda

e--------------------------------------------------||
b-----------------------------(7)-----(7)----------||
g------11------11--------------7-------7-----------||
d------9~------9~--------------5~------5~----------||
a--9-9-9~--9-9-9~----------5-5-5~--5-5-5~----------||
d--9-9-9~--9-9-9~----------5-5-5~--5-5-5~----------||


Repeat verse

Repeat music break

Repeat chorus

               bridge...............

e-----------------------------------||
b-----------------------------------||
g--4-------7-------7-----7-7--------||
d--4---4---7---7---7-7-----7--------||
a--2-2---2-5-5---5-5---5---0-0---0--||
d------------------5-------0---0----||
sing at the top of your lungs...

e----------------------------------||
b----------------------------------||
g-4-4-4-4-7-7-7-7-7-7-7-7-7-7-7-7--||
d-4-4-4-4-7-7-7-7-5-5-5-5-0-0-0-0--||
a-2-2-2-2-5-5-5-5-5-5-5-5-0-0-0-0--||
d-----------------5-5-5-5-0-0-0-0--||
sing out.... ooh oh woahoo oh woohoo


Repeat chorus

hella
Tap to rate this tab
 
# A B C D E F G H I J K L M N O P Q R S T U V W X Y Z