Ministry Of Love - Obituary tab

drop d tuning
www.ministryoflovemusic.com



intro riff (also backing riff for pre-chorus)

e----------------------7---|
b----9------9------9-------|
g------9------9------9-----|
d-11------9------7---------|
a--------------------------|
d--------------------------|


verse riff (this part is played in a lower tuning or add 2 to all notes)

e------------------------------------|
b------------------------------------|
g-----7-7------7-7------7-7------7-7-|
d-7-7-7-7--7-7-7-7--7-7-7-7--7-7-7-7-|
a-9-9-----77-7-----55-5-----55-5-----|
d-9-9-----77-7-----55-5-----55-5-----|


verse riff part 2

e--------------------------------------------------------|
b--------------------------------------------------------|
g--------------------------------------------------------|
d--------------------------------------------------------|
a----------14141111-------111199-------9999-------111177-|
d-11-11-11----------9-9-9--------7-7-7------7-7-7--------|


verse bridge

e------------------------------------|
b-7-7-7-7----------------------------|
g-9-9-9-9-9-9-9-9-9-9-9-9-9-9-9-9-9--|
d-9-9-9-9-9-9-9-9-7-7-7-7-7-7-7-x-x--|
a-7-7-7-7-9-9-9-9-7-7-7-7-7-7-7-7-7--|
d---------9-9-9-9-7-7-7-7-7-7-7------|


pre chorus (root notes)

e----------------------------------|
b-5-5-5-5-9-9-9-9------------------|
g-6-6-6-6-9-9-9-9-9-9-9-9-9-9-9-9--|
d-6-6-6-6-9-9-9-9-7-7-7-7-9-9-9-9--|
a-4-4-4-4-7-7-7-7-7-7-7-7-9-9-9-9--|
d-----------------7-7-7-7-9-9-9-9--|


pre chorus (lead riff)

e-9-----9-----9-----9-----12121212--12--12--|
b---9-----9-----9-----9-----------16^\17~~--|
g-----9-----9-----9-----9-------------------|
d-11----9-----7-----7-----------------------|
a-------------------------------------------|
d-------------------------------------------|


chorus

e-----------------------------------|
b-----------------------------------|
g-6---9------99---6---9-9-9-9~--999-|
d-6-xx7-x9-9-77-xx6-xx9-9-9-7~--xxx-|
a-4-xx7-x9-9-77-xx4-xx7-7-7-7~--777-|
d---xx7-x9-9-77-xx--xx------7~------|


chorus part 2 (part 1)

e---------------------------------|
b---------------------------------|
g-2-2-2-2-4-4-4-4-6-6-6-6-9-9-9-9-|
d-2-2-2-2-4-4-4-4-6-6-6-6-9-9-9-9-|
a-0-0-0-0-2-2-2-2-4-4-4-4-7-7-7-7-|
d---------------------------------|

------repeat--------

chorus part 2 (part 2)

e---------------------------------------------|
b---------------------------------------------|
g-9-9-9-9-11-11-11-11-13-13-13-13-16-16-16-16-|
d-x-x-x-x-x--x--x--x--x--x--x--x--x--x--x--x--|
a-7-7-7-7-9--9--9--9--11-11-11-11-14-14-14-14-|
d-7-7-7-7-9--9--9--9--11-11-11-11-14-14-14-14-|


chorus bridge

e---------------------------------------------------|
b---------------------------------------------------|
g-131313---111111--9~----131313---161616-----9~-9~--|
d-111111---9-9-9---7~----111111---141414-----7~-7~--|
a-111111---9-9-9---7~----111111---141414--7h97~-7~--|
d-111111---9-9-9---7~----111111---141414--7h97~-7~--|
Tap to rate this tab
 
# A B C D E F G H I J K L M N O P Q R S T U V W X Y Z